Tom: Dm
Intro: Dm  Bb  F  C

Dm                            Bb
Posso ouvir os passos do meu rei
F                      C
Posso escutar seu coração
Dm                           Bb
Da minha escuridão me libertou
F                            C
Posso ouvir seu espírito clamar
           Dm            Bb                  F
Eu ouço:  filho meu, chegou tua hora de brilhar
                 C
Você nasceu pra mim
           Dm            Bb                  F
Eu ouço:  filho meu, chegou tua hora de brilhar
                 C
Você nasceu pra mim
            Dm  Bb  F  C
Pra esse tempo
Intro: Dm  Bb  F  C  Dm  Bb  F  C
Dm                                                   Bb
Posso ouvir o santo som aqui
 F					    C
Anunciando sobre um grande rei
Dm                           Bb
Rompendo as barreiras e grilhões
   F                         C
Eu quero ouvir o pai a me chamar
           Dm            Bb                  F
Eu ouço:  filho meu, chegou tua hora de brilhar
                 C
Você nasceu pra mim
           Dm            Bb                  F
Eu ouço:  filho meu, chegou tua hora de brilhar
                 C
Você nasceu pra mim
           Dm            Bb                  F
Eu ouço:  filho meu, chegou tua hora de brilhar
                 C
Você nasceu pra mim
           Dm            Bb                  F
Eu ouço:  filho meu, chegou tua hora de brilhar
                 C
Você nasceu pra mim
            Dm
Pra esse tempo
Solo: Bb F  C  Dm  Bb F  C
(02:10)
E|-------9h10-----
B|-10-10----------
G|------------7~--  3X
D|----------------
A|----------------
E|----------------
E|-10--10--10--10--10--
B|-13b-13b-13b-13b-13b-
G|---------------------
D|---------------------
A|---------------------
E|---------------------
Dm
Esse o hino dessa geração
Bb
Usa-nos deus, aqui estamos
F
Queremos mais de ti, senhor
C
O teu amor nos alcançou
Dm
Esse o hino dessa geração
Bb
Usa-nos deus, aqui estamos
F
Queremos mais de ti, senhor
C
O teu amor nos alcançou
Dm
Esse o hino dessa geração
Bb
Usa-nos deus, aqui estamos
F
Queremos mais de ti, senhor
C
O teu amor nos alcançou
Dm
Esse o hino dessa geração
Bb
Usa-nos deus, aqui estamos
F
Queremos mais de ti, senhor
C
O teu amor nos alcançou
(03:10)
E|-----10-------10-------10------10------10------12/13-12------------------
B|-/10----10-10----10-10---10-11----11-11---11-11---------13-10------------
G|---------------------------------------------------------------12/13-12--
D|-------------------------------------------------------------------------
A|-------------------------------------------------------------------------
E|-------------------------------------------------------------------------
E|-----10-------10-------10------10------10------12/13-12------------------
B|-/10----10-10----10-10---10-11----11-11---11-11---------13--15~-17~~~----
G|-------------------------------------------------------------------------
D|-------------------------------------------------------------------------
A|-------------------------------------------------------------------------
E|-------------------------------------------------------------------------
Solo: Dm Bb F C Dm Bb F C Dm
Solo Teclado: Dm  Dm5+ Dm  Dm5+ (2x)
 Dm
Ah! jesus é rei
 Dm5+
Ah! me conquistou
 Dm
Ah! me libertou
 Dm5+
Pra viver uma nova história               (2X)
 Dm
Ah! jesus é rei
 Dm5+
Ah! me conquistou
 Dm
Ah! me libertou
 Dm5+
Pra viver uma nova história               (2X)


Ah! jesus é rei
Ah! me conquistou
Ah! me libertou
Pra viver uma nova história   (Bateria)   (2X)
 Dm
Ah! jesus é rei
 Bb
Ah! me conquistou
 F
Ah! me libertou
 C
Pra viver uma nova história
(04:55)
E|-10--10--12--12--13--13--15--15--
B|-13b-13b-15b-15b-16b-16b-18b-18b-   2x
                Dm
Vamos mudar o mundo!
	           Bb
Vamos mudar o mundo!
               F
Vamos mudar o mundo!
	           C
Vamos mudar o mundo!
                Dm
Vamos mudar o mundo!


Enviada por Sem inscrição
Nº de acordes: 6

Facebook