Jason Mraz

93 Million Miles

Jason Mraz

20.000 exibições
Capotraste 1ª casa

Afinação: (D A D G D e)
           Drop D

Tom: D
Intro: D  D11/G  Em  D

  D
e--------------------------------------------------------
B---------------------------------------3-------3--------
G-------2-------2-------------------2-------2-------2----
D---4-------4-------4---4---2---0------------------------
A--------------------------------------------------------
D-0---0---0---0---0---0---0---0---0---0---0---0---0---0--
  
         D11/G                   Em
e-3--2---0-0-0---------------3-2-0-0-0-------------------
B-3--3---0-0-0---------------0-0-0-0-0---0---------------
G--------0-0-0-------0-----------0-0-0-----0-------------
D--------4-4-4---0------0--------2-2-2--2-----2----------
A--------5-5-5-------------------2-2-2-------------------
D--------5-5-5-5---5--5---5------2-2-2-------------------
     
                     D
e-2-0----------------x-----------------------------------
B-----3-2/3-3--------3-----------------------------------
G-------------2------2--------2-----------------------2--
D---------------0----0----0-------0---4---2---0---0------
A--------------------0-----------------------------------
D-----------------0--0--0---0---0---0---0---0---0---0----

e--------------------------------------------------------
B--------------------------------------------------------
G-------3------------------------------------------------
D---0----------------------------------------------------
A--------------------------------------------------------
E-0---0--------------------------------------------------

Verso 1:
D
93 million miles from the Sun, people get ready get ready,
                D11/G   
´cause here it comes it´s a light, a beautiful light, 
Em                               D
over the horizon in to your eyes Oh, my my how beautiful, 
                                      D11/G   
oh my beautiful mother She told me, ´Son in life you´re gonna go far, 
    Em                                       A  A4  A
and if you do it right you´ll love where you are
      D11/G                   Em            A              D
Just know, that wherever you go, you can always come back home´

Interlude:
D11/G  Em

Verso 2:
D
240 thousand miles from the Moon, you´ve come a long way to belong here,
             D11/G   
To share this view of the night, a glorious night, 
Em                                     D
over the horizon is another bright sky Oh, my my how beautiful, 
                                      D11/G   
oh my irrefutable father, He told me, ´Son in life it may seem dark, 
        Em                                   A  A4  A        D11/G   
but the absence of the light is a necessary part.     Just know, 
               Em            A                  D
you´re never alone, you can always   come back home´

Refrão:
D11/G        Em                    A          Bm     A      D11/G   
Ohh,ohh,ohh  Ohh,ohh,ohh  You can always come ba.......ck, back

Ponte:
F#m
Every road is a slippery slope 
G
There is always a hand you can hold on to.
F#m
Looking deeper through the telescope 
G                    F#m           A7  A#°
You can see that the home´s inside of you.
      D11/G                   Em                      D11/G   
Just know, that wherever you go, oh no you´re never alone, 
        A                D
you can always get back home

Refrão:
D11/G        Em           D           D
Ohh,ohh,ohh  Ohh,ohh,ohh  Ohh,ohh,ohh
D11/G        Em           D           D
Ohh,ohh,ohh  Ohh,ohh,ohh  Ohh,ohh,ohh
D11/G        Em           D           D
Ohh,ohh,ohh  Ohh,ohh,ohh  Ohh,ohh,ohh

Outro:
D
93 million miles from the Sun, people get ready get ready,
                D11/G   
´cause here it comes it´s a light, 
                   Em                          D
a beautiful light, over the horizon in to your eyes


Acordes     D A D G B E
D       -   0 0 0 2 3 x
D11/G   -   5 5 4 0 0 x
Em      -   2 2 2 0 0 0
A       -   x 0 2 2 2 x
A4      -   x 0 2 2 3 x
Bm      -   x 2 4 4 3 2
F#m     -   x 4 4 2 2 x
G       -   x 4 4 3 2 x
A7      -   x 0 2 0 2 0
A#°     -   x 1 2 0 2 0


Enviada por Sem inscrição
Nº de acordes: 12

Facebook