Banda Calypso

Cumbia De Amor

Banda Calypso

427 exibições
 G, D, Am, Em
  
 E|-------------------------------------------------------------------------|
 B|-------------------------------------------------------------5-8-7-7-5-7-|
 G|-----4-4---4-5-7-----------4-5-5-4-5-5-7-5-4---4--4-5-7-7-5-7------------|
 D|-5-7-----7-------7-7-5-7--7------------------7---------------------------|
 A|-------------------------------------------------------------------------|
 E|-------------------------------------------------------------------------|


 E|-5-7-8-8--7-8-8--10-8-7-5-7--| |------7----------------|
 B|-----------------------------| |----8----10--7---------|
 G|-----------------------------| |--7--------------7-----|
 D|-----------------------------| |-----------------------|
 A|-----------------------------| |-----------------------|
 E|-----------------------------| |-----------------------|


   G, D, Am, Em

   O Amor que sinto por você
   É o maior e mais lindo que existe
   E não há nada pra comparar
   Dentro e Fora do Mundo o que sinto por você


   Refrão 2x

   O meu coração Cheio de Paixão
   Grita teu Nome Onde Quer que eu Vá
   Sonho Com Você, Choro por Você
   Porque eu nasci pra viver por Você

   Intro
   
   G, D, Am, Em

   O Amor que sinto por você
   É o maior e mais lindo que existe
   E não há nada pra comparar
   Dentro e Fora do Mundo o que sinto por você

   Refrão 2x

   O meu coração Cheio de Paixão
   Grita teu Nome Onde Quer que eu Vá
   Sonho Com Você, Choro por Você
   Porque eu nasci pra viver por Você

   Intro + Refrão + intro pra encerrar


Enviada por Sem inscrição
Nº de acordes: 4

Facebook