Billy Idol

Catch My Fall

Billy Idol

202 exibições
intro    3x
e|----------------------------------------------------------------|
B|----------------------------------------------------------------|
G|----------------------------------------------------------------|
D|--------------------0-0-0-0-0-0-2-0-------------0-2-0-0-0-0-0-0-|
A|----------------0-2-----------------2-3-3-3-3-3-----------------|
E|-0-1-2-3-3-3-3-3------------------------------------------------|

chorus
e|------------0-------------------0-----|
B|-------3---------3-------3----------3-|
G|----0----0---------0---0-----0--------|
D|-5------------5------4-----4------4---|
A|--------------------------------------|
E|--------------------------------------|

e|------------0------------------------0--------------0-----|
B|-----1----1-----1-----------3------3---3-----3----------3-|
G|---0----0-----0----------0-------0---------0------0---0---|
D|-2------------------2/4--------4---------5-----5----------|
A|----------------------------------------------------------|
E|----------------------------------------------------------|

e|------------0-----------------0--------------------------|
B|-----3-----------3------1---1-----1--------3------3----3-|
G|---0-----0------------0---0-----0--------0------0--------|
D|-4-----4------4-----2----------------2/4------4-----4----|
A|---------------------------------------------------------|
E|---------------------------------------------------------|


Enviada por Sem inscrição
Nº de acordes: 0

Facebook