Bon Jovi

It's My Life

Bon Jovi

5.594 exibições
Tom: Cm

Intro: 

   Cm ( com talkbox )
E|----------3-4-3----------3-4-3--------|
B|--------4--------------4--------------|
G|------5--------------5----------------|
D|--------------------------------------|
A|-3-3-------------3-3------------------|
E|-3-3-------------3-3------------------|

Cm                                   
This ain't a song for the broken-hearted, (intro)
Cm                                   
no silent prayer for the faith-departed. (intro)
Cm                 
I ain't gonna be just a face in the crowd,
              F
you're gonna hear my voice when I shout it out loud

Refrão:

        Cm         G#            D#
It's my life, it's now or never,
                Bb          Cm
I ain't gonna live forever.
            G#       Bb
I just want to live while I'm alive.
          Cm
It's my life,
                     G#           D#
my heart is like an open highway,
                      Bb
like Frankie said, I did it my way.
Cm             G#             Bb
I just wanna live while I'm alive.
          Cm
It's my life

(Intro)

Cm                                     
This is for the ones who stood their ground, (intro)
Cm                                     
for Tommy and Gina who never backed down. (intro)
Cm                    
Tomorrow's getting harder make no mistake,
              F
luck ain't even lucky, got to make your own breaks.

(Refrão)

Solo:

E|------------------------------------------------------------------
B|------------------------------------------------------------------
G|------------------------------------------------------------------
D|--0h1-0h1-0h1-0h1-0h1-0h1-0h1-0h1-0h1-0h1-0h1-0h1-0h1-0h1-0h1-0h1-
A|------------------------------------------------------------------
E|------------------------------------------------------------------

E-------------------------------------------|
B---4h6/8b-8-8-8b---------------------------|
G------------------8h10-10------------------|
D--------------------------9-10~~~~---------|
A-------------------------------------------|
E-------------------------------------------|

Cm
Better stand tall when they're calling you out,
       F
don't bend, don't break, baby, don't back down!

(Refrão) 4x


Enviada por Sem inscrição
Correção por equipepegacifras
Nº de acordes: 5

Facebook