Bruno e Marrone

Bijuteria

Bruno e Marrone

8.048 exibições
Tom: Am
Intro: Am  Am7/G  F7+  Bm7/5-  E7

          Am     Am7/G
Quando a noite cai
F7+                              Dm       
   É que eu sinto a falta que você me faz
Dm7                 Dm             G
   Saudade que não passa e nem me deixa em paz
E4                 E              Am         Bm7/5- A/F# A/G#
  A sombra de um amor que já brilhou demais.
      Am       Am7/G
Você foi pra mim
F7+                            Dm  
  A coisa mais bonita que me aconteceu
Dm7              Dm             G
  Nem pode imaginar os sonhos que me deu
E4                E            Am          A7 A7/4 A7
  E quanta insegurança que deixou no adeus.

  Dm    Dm/C
Amei você
G                      C7+          C       C7+
  Sem truques, sem maldades, fiz o meu papel
F7+                               Bm7/5-
  Eu quis lhe oferecer o que ninguém me deu
E4              E            Am      A7 A7/4 A7
  Você não acredita, mas eu fui fiel

  Dm    Dm/C
Amei você
G                                C7+     C
  Mas hoje posso ver que foi melhor assim
F7+                               Bm7/5-
  Preciso te esquecer pra me lembrar de mim
E               Am    A7 A7/4 A7
  A vida continua

Refrão:
       Dm                 G
E no brilho de uma pedra falsa
      C                  Am
Dei amor a quem não merecia
       Bm7/5-               E             Am     A7 A7/4
Eu pensei que era uma jóia rara, era bijuteria

        Dm                G
Das mentiras as palavras doces
      C                     Am
Se calou no teu olhar tão frio
      Bm7/5-              E            Am
Na beleza do teu rosto esconde um coração vazio.

Solo:
E|--3/5--------5-5--------------------------------------------------7-10-10--8-7-8-----|
B|-------8-6-------------------------------------6/8----6-5--8-8-------------------10--|
G|--------------------------5-5---4-4----4---------------------------------------------|
D|-------------------------------------7-----------------------------------------------|
A|-------------------------------------------------------------------------------------|
E|-------------------------------------------------------------------------------------|


E|--3/5--------5-5----7-7-7-7-7-7-7-7--8-8-8-8-8-8---10--|
B|-------8-6---------------------------------------------|
G|-------------------------------------------------------|
D|-------------------------------------------------------|
A|-------------------------------------------------------|
E|-------------------------------------------------------|


E|-------------------------5-----5-7----12---10-10-9-9--|
B|-----------------5-6-5-6----8-------------------------|
G|--4---4-5-7-5-7---------------------------------------|
D|----7-------------------------------------------------|
A|------------------------------------------------------|
E|------------------------------------------------------|

E|--------------------------------|
B|--------------------------------|
G|-66h7h9-7-6----4h6--4-----------|
D|--------------7-------7-4-------|
A|---------------------------8-7--|
E|--------------------------------|


  Dm    Dm/C
Amei você
G                      C7+          C     C7+
  Sem truques, sem maldades, fiz o meu papel
F7+                               Bm7/5-
  Eu quis lhe oferecer o que ninguém me deu
E4              E            Am       A7/4 A7
  Você não acredita, mas eu fui fiel

  Dm    Dm/C
Amei você
G                                C7+     C
  Mas hoje posso ver que foi melhor assim
F7+                               Bm7/5-
  Preciso te esquecer pra me lembrar de mim
E              Am   A7 A7/4 A7
  A vida continua

Refrão:
       Dm                 G
E no brilho de uma pedra falsa
      C                  Am
Dei amor a quem não merecia
       Bm7/5-               E             Am     A7 A7/4
Eu pensei que era uma jóia rara, era bijuteria

        Dm                G
Das mentiras as palavras doces
      C                     Am
Se calou no teu olhar tão frio
      Bm7/5-              E            Am
Na beleza do teu rosto esconde um coração vazio.


Enviada por Sem inscrição
Correção por equipepegacifras
Nº de acordes: 18

Facebook