Charlie Brown Jr.

Como Tudo Deve Ser

Charlie Brown Jr.

3.911 exibições
Tom: A
Solo: Riff 1:
Cifra: Riff 1  
Base  (A F#m C#m E)
Um belo sonho veio então despertar minha vontade
tudo vale a pena para te reencontrar
me livrei de tudo aquilo e consegui mudar
tudo que foi feito em troca de uma
amizade a mais / mas felicidade é poder estar com
quem voce gosta em algum lugar, é foda
ser louco, advogado do mundo mas, como tudo deve ser?
é foda ser taxado de doido vagabundo mas, como tudo deve ser?

Base   (A F#m C#m E)
Riff 3
Foi quando te encontrei
ouvindo um som e olhando o mar
Foi quando te encontrei
ouvindo o som do mar rolar     

Base   (A F#m C#m E)
Riff 1
Eu não nasci ontem, bem como, quando e por onde mas
como tudo deve ser, com as balizas do nosso sistema 
Sigo imprimindo meu sonho na história como tudo deve ser 
Um belo sonho veio então despertar minha vontade 
Tudo vale a pena para te reencontrar 
Me livrei de tudo aquilo e consegui mudar 
Tudo que foi feito em troca de uma amizade mas

Base   (A F#m C#m E)
Riff 3
Foi quando te encontrei
ouvindo um som e olhando o mar
Foi quando te encontrei
ouvindo o som do mar rolar     
Riff 2 (2x)

Base   (A F#m C#m E)
Riff 1
Eu não preciso de promessas e acho que você também
Eu não tento ser perfeito e acho que você também
Dias e noites pensando no que fiz eu sou um vencedor eu lutei pelo que quis
Mas quando não se pode mais mudar, tanta coisa errada 
Vamos viver nossos sonhos, temos tão pouco tempo

Base   (A F#m C#m E)
Riff 3
Foi quando te encontrei
ouvindo o som e olhando o mar
Foi quando te encontrei
ouvindo o som do mar rolar     
Riff 4
Base   (A F#m C#m E)
Riff 3  
Foi quando te encontrei
ouvindo o som e olhando o mar     (2x)                                 
Foi quando te encontrei
ouvindo o som do mar rolar    
###########################################################
Riff 1:
 e|-------------------------|-------------------------|
 B|-------------------------|-------------------------|
 G|-------------------------|-------------------------|  
 D|-------------------------|-------------------------|
 A|----------5--3-----------|----------3--1-----------|
 E|-5--3--5--------5--3--1--|-5--3--5--------5--6--5--|

  Intro: 4x Riff 1, 2x Riff 2 (Continuando a fazer o Riff 1), 2x Riff 1 



Riff 1: (Baixo)
 |---------------6-4-------|---------4-2-1h2p1----------------------|  
 |-------6--5--6-6---6-4---|---4-2-4-2-4-------4--------------------|   
 |----4------------------4-|-4-------------------------------------|
 |-5-----------------------|----------------------------------------|

 Riff 2: (Solo 1)
 e|-------0------------------------------------------------|
 B|-2--0-----4--2------------------------2--0-----------0--|
 G|----------------4--1-----1---------1--------1-----1-----|  
 D|----------------------4---------4--------------4--------|
 A|----------------------------4---------------------------|
 E|--------------------------------------------------------|

 e|--------------------------------------------------------|
 B|----2-----------------------0--2--4--5--4--0-----0--0h2-|
 G|----------2--2-----2--------------------------1---------|
 D|-2-----4--------4-----4---------------------------------|
 A|-------------------------4------------------------------|
 E|--------------------------------------------------------|
 
Riff 3: (Refrão)
 
 B|-12-----12-----12-----9-----9-----10-----12-----12-----12-----9-----9-----10------|
 G|-----9------9------9-----9-----9------9------9------9------9-----9-----9------9---|
 

 B|-12-----12-----12-----9-----9-----10-----12-----12-----12-----9-----9-----9h10--9-|
 G|-----9------9------9-----9-----9------9------9------9------9-----9-----9----------|

 Riff 4: (Solo 2)
 e|----------------------------------------------------------------------------------|
 B|-12vvvv--10/9--10b12--10/9---------10b12--10/9------------------------------------|
 G|---------------------------9-------------------9-----------9-------11vvvv--12-12--|
 D|--------------------------------11---------------11---9b11---0b11----------11-11--|
 A|----------------------------------------------------------------------------------|
 E|----------------------------------------------------------------------------------|

 e|----------------------------------------------------------------------------------|
 B|------------------------------12-12-----------------------------------------------|
 G|-9-----------9-------11vvvv---11-11--9-----------9--------------------------------|
 D|---11---9b11---0b11--------------------11---9b11---0b11--9b11---------------9b11--|
 A|---------------------------------------------------------------9--7-9-7-9---------|
 E|----------------------------------------------------------------------------------|

 e|----------------------------------------------------------------------------------|
 B|--------------------------------------9--9/12v---10/9---10b12--10/9---------10b12-|
 G|---------------------------------9-11-----------------9-------------9-------------|
 D|----------9b11--------------9b11-----------------------------------------11-------|
 A|-9--7--9--------9--7-9-7-9--------------------------------------------------------|
 E|----------------------------------------------------------------------------------|

 e|----------------------------------------------------------------------------------|
 B|-10/9-------------------------------12-----12------------------------------12-----|
 G|------9-----------9-------11vvvv----11/13--11--9------------9------11vvvv--11/13--|
 D|--------11---9b11---0b11--------------------------11---9b11---0b11----------------|
 A|----------------------------------------------------------------------------------|
 E|----------------------------------------------------------------------------------|

 e|----------------12-11--------12-11--------11--14-12-------14-12-------12-14-14/16-|
 B|-12------12-----------------------------------------14-14-------14-14-------------|
 G|-13---13----13---------13-13--------13-13-----------------------------------------|
 D|----------------------------------------------------------------------------------|
 A|----------------------------------------------------------------------------------|
 E|----------------------------------------------------------------------------------|


Enviada por Sem inscrição
Nº de acordes: 4

Facebook