Cidade Negra

Johnny B. Goode (Acústico MTV)

Cidade Negra

1.895 exibições
Tom: Em
Intro: Em D

      Em                        D        Em  D
Lá no meio da baixada um negro do Brasil
   Em                     D               Em  D
Olhando pela lage para o céu que se abriu
   Em                     D          Em  D
Vivia no barraco que seu pai lhe deu
(Em D)
Essa era a vida do Johnny be Goode
O que ele aprendeu, ele aprendeu com a vida
E tocava sua guitarra como ninguém
|        Em            D
| If you go, go Johnny
|             Em             D
| Johnny be Goode tonight, yeah!
|        Em            D
| If you go, go Johnny
|            Em     D
| Johnny be Goode
(Em D)
Carregava sua guitarra como um filho seu
Animava a multidão no balanço do trem
Até o maquinista se movia também
Ali todos sabiam que nascia um rei
|        Em            D
| If you go, go Johnny
|             Em             D
| Johnny be Goode tonight, yeah!
|        Em            D
| If you go, go Johnny
|            Em     D
| Johnny be Goode

       full    full                                                            full
E|-12------|15b--15--14--15--14--12--15p12-------12-----------------------------------|
A|-----15b-|---------------------------------15-----15p12-15p12-----12----------------|
D|---------|-----------------------------------------------------14------14p12--12b---|
G|---------|------------------------------------------------------------------------14|
B|---------|--------------------------------------------------------------------------|
E|---------|--------------------------------------------------------------------------|
 varias vezes 
  (aprox.17)
                     full                                                           full 
E|-------|----15p12|-15b--15--14--15--14--12--15p12------12-------------------------------
A|-------|-12------|---------------------------------15------15p12-15p12-----12-----------
D|12-----|---------|------------------------------------------------------14-----14p12-12b
G|----14-|---------|----------------------------------------------------------------------
B|-------|---------|----------------------------------------------------------------------
E|-------|---------|----------------------------------------------------------------------
                8 vezes     
E|--------------------------------------------------------|
A|--------------------------------15----------------------|
D|------------12-------12s16--14b-----14--12------12------|
G|-14-12--14------14--------------------------14------14v~|
B|--------------------------------------------------------|
E|--------------------------------------------------------|
Legenda: [ b = Bend ;  s = Slide ;  v = Vibrato ; p = Pull-Off ]

(Em D)
Alguém disse que ele tem que ser um homem de bem
E tocar com seus amigos numa reggae band
Vem chegando gente de todo lugar
Prá ouvir ele tocar até o amanhecer
E lá na área o comentário era geral
Que o Johnny vai brilhar além do trilho do trem
|        Em            D
| If you go, go Johnny
|             Em             D
| Johnny be Goode tonight, yeah!
|        Em            D
| If you go, go Johnny
|            Em     D
| Johnny be Goode


Enviada por Sem inscrição
Nº de acordes: 2

Facebook