Gram

Você Pode Ir Na Janela

Gram

1.161 exibições
Intro: 

Guit.1
E|------2----2----2----2--|
B|----5----5----5----5----|
G|--4----4----4----4------|
D|------------------------|
A|------------------------|
E|------------------------|

Verso:

Guit.1
E|------2----2----2----2--|
B|----5----5----5----5----|
G|°-4----4----4----4-----°|  5x
D|°----------------------°|
A|------------------------|
E|------------------------|

Guit.2
 |E9/G# | E9/G |
  Se não vai
 |E9/F#  E9/G | E9/G#  E9/G |
  Não desvie a minha estrela
 |E9/F#  E9/G |
  Não desloque a linha reta

Guit.1
E|------2----2----2----2--|
B|----5----5----5----5----|
G|°-4----4----3----3-----°|
D|°----------------------°|
A|------------------------|
E|------------------------|

Guit.2
  E     E5b    
  Você só me fez mudar
  E     E5b     
  Mas depois mudou de mim

Guit.1
E|------2----2----2----2--|
B|----4----4----4----4----|
G|°-4----4----3----3-----°|
D|°----------------------°|
A|------------------------|
E|------------------------|

Guit.2
  B  B7+   B  B7+  

Guit.1
E|------2----2----2----2--|
B|----5----5----5----5----|
G|°-4----4----3----3-----°|
D|°----------------------°|
A|------------------------|
E|------------------------|

Guit.2
  E     E5b    
  Você quer me biografar
  E     E5b     
  Mas não quer saber do fim

Guit.1
E|------2----2----2----2--|
B|----4----4----4----4----|
G|°-3----3----3----3-----°|
D|°----------------------°|
A|------------------------|
E|------------------------|

Guit.2
 |    Ebm    |

Guit.1
E|------2----2----2----2--|
B|----5----5----5----5----|
G|°-4----4----4----4-----°|
D|°----------------------°|
A|------------------------|
E|------------------------|

Guit.2
  E9/G#   E9/G 
  Mas se vai
  E9/F#  E9/G  
  Você pode ir na janela

Guit.1
E|------2----2----2----2--|
B|----5----5----5----5----|
G|°-4----4----3----3-----°|
D|°----------------------°|
A|------------------------|
E|------------------------|

Guit.2
  E     E5b     
  Pra se amorenar no sol
  E     E5b     
  Que não quer anoitecer

Guit.1
E|------2----2----2----2--|
B|----4----4----4----4----|
G|°-4----4----3----3-----°|
D|°----------------------°|
A|------------------------|
E|------------------------|

Guit.2
  B  B7+   B  B7+  

Guit.1
E|------2----2----2----2--|
B|----5----5----5----5----|
G|°-4----4----3----3-----°|
D|°----------------------°|
A|------------------------|
E|------------------------|

Guit.2
  E     E5b    
  E ao chegar no meu jardim
  E     E5b    
  Mostro as flores que falei

Guit.1
E|------2----2----2----2--|
B|----5----5----5----5----|
G|°-4----4----4----4-----°|
D|°----------------------°|
A|------------------------|
E|------------------------|

Guit.2
       Ebm      

Guit.2
       E      
  Vai sem duvidar
       E      
  Mas se ainda faz sentindo, vem
      G#m     
  Até se for bem no final
      G#m     
  Será mais lindo
       B      
  Como a canção que um dia fiz
       B      
  Pra te brindar
    E       %       B       %    

Guit.1
E|------2----2----2----2--|
B|----5----5----5----5----|
G|°-4----4----4----4-----°|
D|°----------------------°|
A|------------------------|
E|------------------------|

Guit.2
  E9/G#   E9/G 

Guit.3
E|------------------------|
B|------------------------|
G|------------------------|
D|----4~~---2~~---1~~-----|
A|------------------------|
E|------------------------|

Guit.2
  E9/F#  E9/G  
  Você pode ir na janela

Guit.1
E|------2----2----2----2--|
B|----5----5----5----5----|
G|°-4----4----3----3-----°|   4x
D|°----------------------°|
A|------------------------|
E|------------------------|

Guit.2
  E     E5b    
  Pra se amorenar no sol
  E     E5b    
  Que não quer anoitecer
  E     E5b    
  E ao chegar no meu jardim
  E     E5b    
  Mostro as flores que falei

Guit.1
E|------2----2----2----2--|
B|----4----4----4----4----|
G|°-4----4----3----3-----°|
D|°----------------------°|
A|------------------------|
E|------------------------|

Guit.2
  B  B7+   B  B7+ 

Guit.1
E|------2----2----2----2--|------2----2----2----2--|
B|----5----5----5----5----|----4----4----4----4----|
G|°-4----4----3----3-----°|°-4----4----3----3-----°|
D|°----------------------°|°----------------------°|
A|------------------------|------------------------|
E|------------------------|------------------------|

Guit.2
 |: E  E5b :|: B  B7+ :|
  [Até o fim...]


Enviada por Sem inscrição
Nº de acordes: 9

Facebook