Gusttavo Lima

60 Segundos

Gusttavo Lima

9.767 exibições
Tom: E

Intro: 

(Teclado)

                 E    A         C#m      B
E|-------12-11-7-9------12-14-16--16-14-12-11----|
B|---7-9-----------9-7------------------------14-|
G|-9---------------------------------------------|
D|-----------------------------------------------|
A|-----------------------------------------------|
E|-----------------------------------------------|


(Violão)

       E         A          C#m          B
E|---------|---------|-------------|---------|
B|-------0-|-------2-|-------5-----|-------4-|
G|-----1---|-----2---|-----6---6---|-----4---|
D|---2-----|---2-----|---6---------|---4-----|
A|---------|-0-------|-4---------4-|-2-------|
E|-0-------|---------|-------------|---------|


(Teclado)

         E      A            C#m  B   A
E|-12-11-7-9----------------------------------------12-|
B|-----------9-7---------9-10-9-7-5-4-5----------14----|
G|-----------------------------------------------------|
D|-----------------------------------------------------|
A|-----------------------------------------------------|
E|-----------------------------------------------------|


(Violão)

      E         A      C#m  B   A
E|---------|---------|-4-|-2-|-0-|
B|-------0-|-------2-|-5-|-4-|-2-|
G|-----1---|-----2---|-6-|-4-|-2-|
D|---2-----|---2-----|-6-|-4-|-2-|
A|---------|-0-------|-4-|-2-|-0-|
E|-0-------|---------|---|---|---|


Primeira Parte:

(teclado)

    E       A        C#m        B     A
E|-------------|-----------|-------|---|
B|-------------|-----5-----|-4-----|-2-|
G|-------1-----|---6---6---|---4---|-2-|
D|-----2----4--|-6-------6-|-----4-|-2-|
A|---2---------|-----------|-------|---|
E|-0-----------|-----------|-------|---|


          E           A
Me dê um Minuto pra falar
           C#m        B        A
Que eu preciso de você Meu Amor
        E                A 
59 segundos é o que resta 
          C#m           B            E
Pra entender essa paixão no meu peito
Dedilhado da 2° parte:

     A          B9        G#m       C#m
E|-------0-|-------2-|---------|---------|
B|-------2-|-------2-|-------4-|-------4-|
G|-----2---|-----4---|-----4---|-----6---|
D|---2-----|---4-----|---6-----|---6-----|
A|-0-------|-2-------|---------|-4-------|
E|---------|---------|-4-------|---------|


     A          B9     F#m
E|-------0-|-------2-|-2-|
B|-------2-|-------2-|-2-|
G|-----2---|-----4---|-2-|
D|---2-----|---4-----|-4-|
A|-0-------|-2-------|-4-|
E|---------|---------|-2-|


         A
Cada segundo que se passa
          B9
Mais aumenta essa vontade
        G#m
Esse desejo,
        C#m
Essa Paixão

          A
Que me Domina, me fascina
           B9                 F#m 
O Teu jeito de menina tão linda 
Dedilhado do Pré-Refrão:

       E            B           A       B
E|-0---0-----|-2---2-----|-0---0-----|-2-|
B|-0-----0---|-4-----4---|-2-----2---|-4-|
G|-1-1-----1-|-4-4-----4-|-2-2-----2-|-4-|
D|-2---------|-4---------|-2---------|-4-|
A|-2---------|-2---------|-0---------|-2-|
E|-0---------|-----------|-----------|---|


           E               B
Você enlouquece o meu coração
                   A              B
Você sabe que eu estou em suas mãos

Refrão:
                  E                      B
O Tempo passa depressa quando estou com Você
                  C#m                     G#m
As horas viram minutos não consigo entender
                           A
E o que eu mais quero é viver ao seu lado...
G#m             B  B9  B
Cada Segundo Amor

                  E                      B
O Tempo passa depressa quando estou com Você
                  C#m                     G#m
As horas viram minutos não consigo entender
                           A
E o que eu mais quero é viver ao seu lado...
G#m             B B9  B
Cada Segundo Amor

     A            B         E
Te Fazer Feliz Por Toda Vida

 parte:
         A
Cada segundo que se passa
          B
Mais aumenta essa vontade
        G#m
Esse desejo,
        C#m
Essa Paixão

          A
Que me Domina, me fascina
          B                  F#m
O Teu jeito de menina tão linda

Pré-Refrão:
           E               B
Você enlouquece o meu coração
                   A              B   (C)
Você sabe que eu estou em suas mãos

Refrão:
                  F                      C
O Tempo passa depressa quando estou com Você
                  Dm                     Am
As horas viram minutos não consigo entender
                           Bb
E o que eu mais quero é viver ao seu lado...
Am             C
Cada Segundo Amor

                  F                      C
O Tempo passa depressa quando estou com Você
                  Dm                     Am
As horas viram minutos não consigo entender
                           Bb
E o que eu mais quero é viver ao seu lado...
Am             C
Cada Segundo Amor

     Bb            C         F
Te Fazer Feliz Por Toda Vida
     Bb            C         F
Te Fazer Feliz Por Toda Vida


Enviada por maicon-kike
Nº de acordes: 13

Facebook