Gusttavo Lima

Mente Pra Mim

Gusttavo Lima

2.634 exibições
Tom: C#m
Intro: C#m A E B

E|--------------------------4-----------------5/7-5-4---4---4-5-7-----|
B|--5-4-5-4-5-----5-4-5-4-5-----5-4-5-4-5-4-5---------7-----------7~--|
G|--------------------------------------------------------------------|
D|--------------------------------------------------------------------|
A|--------------------------------------------------------------------|
E|--------------------------------------------------------------------|

C#m
Olha dentro dos meus olhos
                   E
E me conta umas mentiras
Só pra me agradar
B
Fala que hoje eu tô bonito
                   F#
Que ainda pensa em mim quando vai se deitar
C#m
Diz que quando acorda todo dia
                  E
Seu primeiro pensamento pode ser que seja eu
B
Mente pra esse cara inocente
                 F#
Fala que ele ainda vai ser seu
C#m
O amor da sua vida era eu
            F#
Não era verdade
A                F#m
Eu vou amar doendo, eu vou amar sofrendo
B
Mesmo sabendo que tudo pode acabar
C#m
Mente pra mim
É o que eu gosto
A
Quanto mais você me ilude mais eu te adoro
E
Menina indecente, que finge ser carente
B
E é desse jeito que eu te provoco
C#m
Mente pra mim
É o que eu gosto
A
Quanto mais você me ilude mais eu te adoro
E
Menina indecente, que finge ser carente
B
E é desse jeito que eu te provoco

(repete a intro)

Base: C#m A E B
E|--------------------------4-----------------5/7-5-4---4---4-5-7-----|
B|--5-4-5-4-5-----5-4-5-4-5-----5-4-5-4-5-4-5---------7-----------7~--|
G|--------------------------------------------------------------------|
D|--------------------------------------------------------------------|
A|--------------------------------------------------------------------|
E|--------------------------------------------------------------------|

C#m
O amor da sua vida era eu
            F#
Não era verdade
A                F#m
Eu vou amar doendo, eu vou amar sofrendo
B
Mesmo sabendo que tudo pode acabar
C#m
Mente pra mim
É o que eu gosto
A
Quanto mais você me ilude mais eu te adoro
E
Menina indecente, que finge ser carente
B
E é desse jeito que eu te provoco


Enviada por Sem inscrição
Nº de acordes: 6

Facebook