Sem imagem

Corinthians

Hinos

5.085 exibições
Versão 1
----------
HINO DO CORINTHIANS
Tom: Em
Intro: Am  Em B7
 
               Em
Salve o Corinthians
                    B7
O campeão dos campeões
                                    	Em>
Eternamente dentro dos nossos corações
                  Am
Salve o Corinthians
                       Em
De tradições e glórias mil
             B7                        Em
Tu és o orgulho dos desportistas do Brasil
                     B7    
Teu passado é uma bandeira
                     Em
Teu presente é uma lição
                     B7  
Figuras entre os primeiros
                     Em
Do nosso esporte bretão
            Am
Corinthians grande
            Em
Sempre altaneiro
          B7                   Em
És do Brasil o clube mais brasileiro
 

Versão 2
---------

Hino do Corinthians

E|-----------------------------------------------------------|
A|-----------------------------------------------------------|
D|----9-7-7--7-7-9-------7-5-5-----5-4-4---4-4-5-7-----------|
G|7-5--------------5---5---------5-----------------5-4-------|
B|-------------------5---------5-----------------------7-5---|
e|-----------------------------------------------------------|


matuck@tecsat.com.br

Versão 3
--------
Hino do Corinthians

Por: Fisichella/0001538 - giale@ig.com.br

e|--1-0----------------0----------------------------------0---|
B|------1----------0-1---3-1-0----3-0-------------0-3-1-0-----|
G|--------2--2---2--------------------2-1--1--1-2-------------|
D|------------------------------------------------------------|
A|------------------------------------------------------------|
E|------------------------------------------------------------|

Versão 3:
e|-------------------------------------------------------------------|
B|-------------------------------------------------------------------|
G|-------------------------------------------------------------------|
D|-------------------------------------------------------------------|
A|--/5-4------------------4-2---------3-------------------8-6--------|
E|--------5-2-2--2-2-4-5-------5-4-4-----6-5-6-6--6-6-8-9-----9-8-8--|

e|---------------------------------------------------------------------------|
B|---------------------------------------------------------------------------|
G|---------------------------------------------------------------------------|
D|---------------------------------------------------------------------------|
A|-------------------------11-9----------------------------------------------|
E|--11-9-8-9-9--9-9-11-12-------12-11-11--14-12-11-9-9--9-11-12-11-11-6-7-4--|


Enviada por Sem inscrição
Nº de acordes: 3

Facebook