Sem imagem

Hino Do Cruzeiro

Hinos

2.795 exibições
Existe um grande clube na cidade...

e|------------------------------------
B|---------9-8--------11-9-8-8--------
G|-----10------10-9-------------10----
D|-10---------------------------------
A|------------------------------------
E|------------------------------------

Que mora dentro do meu coração...

e|-----------------------------9-8-----
B|-------------13-11-10----------11----
G|-10-11-10------------10--------------
D|-------------------------------------
A|-------------------------------------
E|-------------------------------------

Eu vivo cheio de vaidade...

e|-9-8-9-8-----------------------
B|----------11-9-8-8-------------
G|---------------------10--------
D|-------------------------------
A|-------------------------------
E|-------------------------------

Pois na realidade é um grande Campeão...

e|------------------8---------------------8--
B|---------8-9-11----11-9-8---------9----11--
G|-----10---------------------10-------------
D|-10----------------------------10----------
A|-------------------------------------------
E|-------------------------------------------

Nos gramados de Minas Gerais...

e|----------11-13-11---------------------
B|-13-14-------------14-13-11------------
G|---------------------------------10----
D|---------------------------------------
A|---------------------------------------
E|---------------------------------------

Temos páginas heróicas, imortais...

e|----------9-8----------------------
B|-----11------11-9-11-9-8-----------
G|-10-------------------------10-8---
D|-----------------------------------
A|-----------------------------------
E|-----------------------------------

Cruzeiro, Cruzeiro querido...

e|------------------10-8-------------
B|--------------9-12-----------------
G|9-10-9-9-10------------------------
D|-----------------------------------
E|-----------------------------------

Tão combatido, jamais vencido.

e|10-10-8-10-8---------10------------
B|--------------11-10-------13-11----
G|-----------------------------------
D|-----------------------------------
A|-----------------------------------
E|-----------------------------------


Enviada por Sem inscrição
Nº de acordes: 0

Facebook