John Lennon

Imagine

John Lennon

14.147 exibições
Tom: C

Intro: 

   C/G         C7+ F
E|------------------------------------------|
B|-------------0--------------------0-------|
G|-0---0---0---0---2---2---2---2-3----------|
D|-2---2---2-----2-3---3---3----------------|
A|-3-3---3---3-3---3-3---3---3--------------|
E|-3---------------1------------------------| (2x)


1ª parte - mesmo dedilhado da Intro:

C/G                 C7+   F
   Imagine there's no heaven
C/G              C7+  F
   It's easy if you try
C/G         C7+  F
   No hell below us
C/G          C7+    F
    Above us only sky

Refrão:

F          C/E          Dm7   F/C
   Imagine all the people
 G            G7
Living for today a-hah

(1ª parte - variação I):
C/G                 C7+     F
   Imagine there's no countries
C/G               C7+  F
   It isn't hard to do
C/G                C7+ F
   Nothing to kill or die for
 C/G           C7+   F
   And no religion too

F          C/E          Dm7   F/C
   Imagine all the people
    G              G7
   Living life in peace yu-huh

2ª parte:

F           G          C      C7+  E  E7
   You may say I'm a dreamer
F           G               C  C7+  E  E7
   But I'm not the only one
F              G          C      C7+  E  E7
   I hope someday you'll join us
F           G          C
   And the world will be as one

(passagem e variação do dedilhado da 1ª parte)

                C
E|------------------------------------------|
B|-------------1---1---1---0----------------|
G|-------------0---0---0---0----------------|
D|-------------2-2---2---2---2--------------|
A|---3---3---3-3---3---3---3----------------|
E|-3---5---7--------------------------------|


1ª parte - variação II:

C              C7+   F
   Imagine no possessions
C/G             C7+ F
   I wonder if you can
C/G                  C7+    F
   No need for greed or hunger
C/G              C7+    F
   A brotherhood of man

F          C/E          Dm7   F/C
   Imagine all the people
  G              G7
Sharing all the world yu-huh

F           G          C      C7+  E  E7
   You may say I'm a dreamer
F           G               C  C7+  E  E7
   But I'm not the only one
F              G          C      C7+  E  E7
   I hope someday you'll join us
F           G          C
   And the world will be as one


Enviada por Sem inscrição
Correção por equipepegacifras
Nº de acordes: 11

Facebook