Jorge e Mateus

Logo Eu

Jorge e Mateus

2.321 exibições
Tom: F#m
Intro: (F#m A E) 2x

E|-------------------------------------------------------------------4-----------|
B|-5/7---5/7---9/5~---7b8p5---5-----5---------5/7---5/7/5/7---7/9/5----7b8h5---5-|
G|--------------------------6-------4h6p4------------------------------------6---|
D|-------------------------------------------------------------------------------|
A|-------------------------------------------------------------------------------|
E|-------------------------------------------------------------------------------|

   Riff 1
E|-----------------------|
B|------5/2--------------|
G|-----------------------|
D|--4h6------------------|
A|-----------------------|
E|-----------------------|


   Riff 2
E|-----------------------|
B|-----------------------|
G|-----9----8----6-------|
D|-7/9----9----7---------|
A|-----------------------|
E|-----------------------|

   Riff 3
E|--7--4---------------------------------4----4--------------|
B|--------7--5----------------------5------7-----7--5---5h7--|
G|-------------6--4--6p4------------------------------6------|
D|-----------------------6--4--4h6---------------------------|
A|-----------------------------------------------------------|
E|-----------------------------------------------------------|

(Riff 1)
F#m 
Eu te vi e já te quis
A
Me vi tão feliz
C#m                      A
Um amor que para mim era sonho
E                 A
Surpreendente provar do que eu só ouvi falar
C#m          B          A
E você resolveu me mostrar     (Riff 2)
        F#m
Logo eu que nem pensava
       A	       E
Eu não imaginava te merecer
    B
E agora sou o dono desse amor
F#m		        A
Eu nem quero saber por quê
	         E
Eu só preciso viver
   B		       F#m    A    E  B
O resto dessa vida com você eie eie
E
Eu te vi e já te quis
A
Me vi tão feliz
C#m          B            A
Um amor que pra mim era sonho
E			A
Surpreendente provar do que eu só ouvi falar
C#m         B  	      A
E você resolveu me mostrar
        F#m
Logo eu que nem pensava
       A	       E
Eu não imaginava te merecer
    B
E agora sou o dono desse amor
F#m		      A
Eu nem quero saber por quê
		E
Eu só preciso viver
   B		       F#m
O resto dessa vida com você
F#m
Eu que nem pensava
A E A
Não imaginava
E
Te merecer
B
E agora sou o dono desse amor
F#m7                  A
Eu nem quero saber por que
                E
Eu só preciso viver
B                       F#m
O resto dessa vida com você
      A         E  (Riff 3)
Com você com você
 B                 F#m
O resto dessa vida com você  (Riff 2)


Enviada por Sem inscrição
Nº de acordes: 9

Facebook