Jota Quest

O Sol

Jota Quest

6.954 exibições
Tom: A

Intro: 
            A                                 E E7
|--------------------------------|--------------------------------|
|--------------------------------|--------------------------------|
|--------------------------------|------------9h--11--9-----------|
|----------7p--9---7-------------|----9h--11----------------------|
|--7p--9-------------------------|--------------------------------|
|--------------------------------|--------------------------------|
 
 : D9 :      : D9 C#9    B9   A : 
|--------------------------------|
|--------------------------------|
|--------7-----7p--6-----4p----2-|
|9h--11--------------------------|
|--------------------------------|
|--------------------------------|
 
A
Hey!!! Dor
E                E7
Eu n?o te escuto mais
D                  A  
Voc? n?o me leva a nada

A
Hey!!! Medo
E                E7
Eu n?o te escuto mais
D9                  A
Voc? n?o me leva a nada

Refr?o:

A                      E E7
E se quiser saber pra onde eu vou
D9
Pra onde tenha sol
A
? pra l? que eu vou


(na parte final da musica o refr?o ?  A E E7 D9 C#9 B9 A )


Enviada por Sem inscrição
Correção por tinho
Nº de acordes: 7

Facebook