Legião Urbana

Indios (Acústico MTV)

Legião Urbana

20.670 exibições
Tom: C

Intro: 

Riff1
e|---------------------------|
B|-8--8-8--10-12---7--5--3---|
G|---------------------------| (3x)
D|-9-9-9-9-10-12---7--5--4---|
A|---------------------------|
E|---------------------------|

Solo:

Base: (C D Bm Em) 2x

e|---3-2-3---3-2-3---3-2-3---3-2-3----5-3-5---5-3-5---5-3-5---5-3-5-|
B|-1-------1-------1-------1--------3-------3-------3-------3-------|
G|------------------------------------------------------------------|
D|------------------------------------------------------------------|
A|------------------------------------------------------------------|
E|------------------------------------------------------------------|

e|---7-5-7---7-5-7---7-5-7---7-5-7----7-5-7---7-5-7---7-5-7---7-5-7-|
B|-3-------3-------3-------3--------5-------5-------5-------5-------|
G|------------------------------------------------------------------|
D|------------------------------------------------------------------|
A|------------------------------------------------------------------|
E|------------------------------------------------------------------|

e|---8-7-8---8-7-8---8-7-8---8-7-8----8-7-8---8-7-8---8-7-8---8-7-8-|
B|-5-------5-------5-------5--------7-------7-------7-------7-------|
G|------------------------------------------------------------------|
D|------------------------------------------------------------------|
A|------------------------------------------------------------------|
E|------------------------------------------------------------------|

e|---10-8-10---10-8-10---10-8-10---10-8-10-|
B|-7---------7---------7---------7---------|
G|-----------------------------------------|
D|-----------------------------------------|
A|-----------------------------------------|
E|-----------------------------------------|

e|---10-8-10---10-8-10---10-8-10---10-8-10-|
B|-8---------8---------8---------8---------|
G|-----------------------------------------|
D|-----------------------------------------|
A|-----------------------------------------|
E|-----------------------------------------|

C
Quem me dera, ao menos uma vez,
        D
Ter de volta todo ouro que entreguei
             Bm
A quem conseguiu me convencer que era prova de amizade
     Em
Se alguém levasse embora até o que eu não tinha
C
Quem me dera, ao menos uma vez,
     D
Esquecer que acreditei que era por brincadeira
    Bm
Que se cortava sempre um pano-de-chão
   Em
De linho nobre e pura seda.
C
Quem me dera, ao menos uma vez,
     D
Explicar o que ninguém consegue entender:
           Bm                                Em
Que o que aconteceu ainda está por vir e o futuro não é mais como era antigamente.
C
Quem me dera, ao menos uma vez,
   D
Provar que quem tem mais do que precisa ter
      Bm
Quase sempre se convence que não tem o bastante
  Em
E fala demais por não ter nada a dizer
C
Quem me dera, ao menos uma vez,
           D
Que o mais simples fosse visto como o mais importante,
Bm
Mas nos deram espelhos
   Em
E vimos um mundo doente.
C
Quem me dera, ao menos uma vez,
      D
Entender como um só Deus ao mesmo tempo é três
        Bm
E esse mesmo Deus foi morto por vocês
         Em
É só maldade então, deixar um Deus tão triste

 C  Bm          Am           D/F#
    Eu quis o perigo e até sangrei sozinho
    G     D/F#                      Em
Entenda, assim pude trazer você de volta pra mim,
        C
Quando descobri que é sempre só você
          F         G          D/F#
que me entende do inicio ao fim
Em                    C                                          D
E é só você que tem a cura para o meu vício de insistir nessa saudade que eu sinto
                F               G
De tudo que eu ainda não vi...

(Solo intro)

C
Quem me dera, ao menos uma vez,
     D
Acreditar por um instante em tudo que existe
    Bm
E acreditar que o mundo é perfeito
       Em
E que todas as pessoas são felizes
C
Quem me dera, ao menos uma vez,
   D
Fazer com que o mundo saiba que seu nome
 Bm
Está em tudo  e mesmo assim
    Em
Ninguém lhe diz ao menos obrigado.
C
Quem me dera, ao menos uma vez,
 D                     Bm
Como a mais bela tribo, dos mais belos índios,
    Em
Não ser atacado por ser inocente.

 C  Bm          Am           D/F#
    Eu quis o perigo e até sangrei sozinho
  G      D/F#                      Em
Entenda, assim pude trazer você de volta pra mim,
        C
Quando descobri que é sempre só você
          F         G         D/F#
que me entende do inicio ao fim
Em                    C                                          D
E é só você que tem a cura para o meu vício de insistir nessa saudade que eu sinto
               F              G
De tudo que eu ainda não vi...
C                                     F
Nos deram espelhos e vimos um mundo doente
G
Tentei chorar e não consegui.

(G D/F#)


Enviada por Sem inscrição
Correção por equipepegacifras
Nº de acordes: 8

Facebook