Intro: C G Am F

E|----------------------------------|    E|-0------------------0-------------|
B|-5------------------5-------------|    B|---3-1-0--------------3-1-0--1----|
G|---7-5-4--------------7-5-4--5----| ou G|---------2-0-2------------------0-|
D|---------7-5-7--3---------------5-|    D|----------------3-----------------|
A|----------------------------------|    A|----------------------------------|
E|----------------------------------|    E|----------------------------------|

Sugestão para um só violão
Tente fazer com a batida de pop/rock, encaixando as notas entre os acordes:

   C           G            Am          F 
E|-0-0-0-0-0-0--------------0-0-0-0-0-0-1-1-1-1-1-1-|
B|-1-1-3-3-1-1-0-0-0-0-0-0--1-1-1-1-1-1-1-1-1-1-1-1-|
G|-0-0-0-0-0-0-0-0-2-2-0-0--2-2-2-2-2-2-2-2-2-2-2-2-|
D|-------------0-0-0-0-0-0--2-2-2-2-2-2-3-3-3-3-3-3-|
A|--------------------------0-0-0-0-0-0-3-3-3-3-3-3-|
E|--------------------------------------1-1-1-1-1-1-|
   ^ ^ V V ^ V ^ ^ V V ^ V  ^ ^ V V ^ V ^ ^ V V ^ V

   C            G           Am          F
E|-0-0-0-0-0-0--3-3-3-3-3-3-0-0-0-0-0-0-1-1-1-1-1-1-|
B|-1-1-3-3-1-1--0-0-0-0-0-0-1-1-1-1-1-1-1-1-1-1-1-1-|
G|-0-0-0-0-0-0--0-0-0-0-0-0-2-2-2-2-2-2-2-2-2-2-2-2-|
D|--------------0-0-0-0-0-0-2-2-2-2-2-2-3-3-3-3-3-3-|
A|--------------2-2-2-2-2-2-0-0-0-0-0-0-3-3-3-3-3-3-|
E|--------------3-3-3-3-3-3-------------1-1-1-1-1-1-|
   ^ ^ V V ^ V  ^ ^ V V ^ V ^ ^ V V ^ V ^ ^ V V ^ V

^= batida para baixo
V= batida para cima


C           G         Am           F        C
Tire suas mãos de mim, eu não pertenço a você
              G         Am         F           C
Não é me dominando assim que você vai me entender
                 G   Am               F              
Eu posso estar sozinho mas eu sei muito bem aonde estou
Am              Em         F               G          (C F)
Você pode até duvidar,  acho que isso não é amor

G              Dm
Será só imaginação?
G                  Dm
Será que nada vai acontecer?
G                       Dm
Será que é tudo isso em vão?
G                    Dm         Am
Será que vamos conseguir vencer?
  F       G    (C F)
Ô ô ô ô ô ô

C                      G      Am                 F
 Nos perderemos entre monstros da nossa própria criação
C                G    Am                    F
 Serão noites inteiras talvez por medo da escuridão
C              G    Am                 F       
 Ficaremos acordados imaginando alguma solução 
Am                      Em   F                  G      (C F)
 Pra que esse nosso egoísmo não destrua nosso coração

G                    F       G
Será só... até ... Ô ô ô ô ô ô

    C               G/B
Brigar pra que se é sem querer
    C/Bb           Dm
Quem é que vai nos proteger?
  C                    G/B
Será que vamos ter que responder
     C/Bb           Dm           (G F)---> 3x até acabar a música.
Pelos erros a mais, eu e você?

Intro: Guitarra 1                    Guitarra 2 (2x)
E|--------------------------------|-----------------------------------------------------------------|
B|-5-3---------------5-3----------|-----------------------------------------------------------------|
G|-----5-4---------------5-4--5---|-5-5-5-5-5-5-5-5-4-4-4-4-4-4-4-4-2-2-2-2-2-2-2-2-2-2-2-2-2-2-2-2-|
D|---------7-5-7----------------5-|-5-5-5-5-5-5-5-5-5-5-5-5-5-5-5-5-2-2-2-2-2-2-2-2-3-3-3-3-3-3-3-3-|
A|---------------8----------------|-----------------------------------------------------------------|
E|--------------------------------|-----------------------------------------------------------------|

  Canto 1           Canto 2 
E|----------------|-------------------------------|
B|-              -|-5-x-5-------5-----6-6s8-8---8-|
G|-Guitarra 2 da -|-5-x-5-5-5---5-5---5-5s7-7---7-|
D|-introdução. 3x-|-5-x-5-----7-7---7-7-7s9-9-9-9-|
A|-              -|-------------------------------|
E|----------------|-------------------------------|

 Riff A                                Refrão
E|----------------------------------|--------------------------------- 3x -----------------------------|
B|-5-x-5------- 2x ---------6-6-6-5-|--------------------------(-4-4-4-4-7-7-7-7-7-7-7-7-7-7-7-7-7-7-)-|
G|-5-x-5-(-7-7-7-7-7-7-7-7)-7-7-7-5-|-4-5-7-7-7-7-7-7-7-7-7-7--(-5-5-5-5-7-7-7-7-7-7-7-7-7-7-7-7-7-7-)-|
D|-5-x-5----------------------------|-5-4-7-7-7-7-7-7-7-7-7-7--(-5-5-5-5-5-5-5-5-5-5-5-5-5-5-5-5-5-5-)-|
A|----------------------------------|-5-5-5-5-5-5-5-5-5-5-5-5--(-3-3-3-3-----------------------------)-|
E|----------------------------------|-3-3--------------------------------------------------------------|

                                   Canto 3 (16x)
E|---2-----1-1-1-1-1-1-1-1-1-1-1-|---------------|----- 3x ----|------|
B|-2-2-4-5-1-1-1-1-1-1-1-1-1-1-1-|-5-5-5-5-5-5-5-|-(-4-4-2-2-)-|------|
G|-2-2-4-5-2-2-2-2-2-2-2-2-2-2-2-|-7-7-7-7-7-7-7-|-(-5-5-3-3-)-|------|
D|-0-0-2-3-3-3-3-3-3-3-3-3-3-3-3-|-5-5-5-5-5-5-5-|-(-5-5-3-3-)-|--Am--|
A|---------3-3-3-3-3-3-3-3-3-3-3-|---------------|-(-3-3-1-1-)-|------|
E|---------1-1-1-1-1-1-1-1-1-1-1-|---------------|-------------|------|

Final.
E|-3-3-1-3-3-1-3-3-1-|
B|-3-3-1-3-3-1-3-3-1-|
G|-4-4-2-4-4-2-4-4-2-|
D|-5-5-3-5-5-3-5-5-3-|
A|-5-5-3-5-5-3-5-5-3-|
E|-3-3-1-3-3-1-3-3-1-|


Enviada por Sem inscrição
Nº de acordes: 8

Facebook