Riff1 e Intro:    
e|--------------------------------------0-0-0---} 
B|--------------------------------------0-0-0---} 
G|-----------6------------2--11\-9-/11--1-2-1---}  2x 
D|-----9-7-9-7-9-7--6-4-6-4---x--x--x---2-2-2---}  
A|-----7-7-7-7-7-7--4-4-4-4---9\-7-/9---2-2-2---} 
E|-----5-5-5---5-5--2-2-2-2-------------0-0-0---}

Ponte:
e|-----------------------------} 
B|-----------------------------} 
G|----------7-----16---13--11--} 
D|----------x------x----x---x--} 
A|----------5-----14---11---9--} 
E|-----------------------------} 



>> Refrão:              
   After all this time  I never thought we'd be here       
e|--0--------------0-0------2-----} 
B|--2--------------0-0------3-----} 
G|--2--------------2-1------2-----} 
D|--2--------------2-2------0-----} 
A|--0--------------2-2------x-----} 
E|-----------------0-0------2-----} 
 
  never thought we'd be here 
e|--0----------------0---------} 
B|--2----------------0---------} 
G|--2----------------1---------} 
D|--2----------------2---------} 
A|--0----------------2---------} 
E|-------------------0---------} 
 
  when my love for you is blind  But I couldn't make you see it 
e|----------0--------------0-0------------2-----} 
B|----------2--------------0-0------------3-----} 
G|----------2--------------2-1------------2-----} 
D|----------2--------------2-2------------0-----} 
A|----------0--------------2-2------------x-----} 
E|-------------------------0-0------------2-----} 
 
   Couldn't make you see it 
e|----2----------------0---------} 
B|----2----------------0---------} 
G|----2----------------1---------} 
D|----4----------------2---------} 
A|----4----------------2---------} 
E|----2----------------0---------} 
 
   That I loved you more  Than you'll ever know 
e|------2-------------2---------------0-----0----} 
B|------2-------------3---------------2-----2----} 
G|------2-------------2---------------2-----2----} 
D|------4-------------0---------------2-----2----} 
A|------4-----------------------------0-----x----} 
E|------2-----------------------------------4----} 
 
   And part of me died   When I let you, 
e|------2----------2----------0-----0-0---} 
B|------2----------3----------2-----0-0---} 
G|------2----------2----------2-----2-1---} 
D|------4----------0----------2-----2-2---} 
A|------4---------------------0-----2-2---} 
E|------2---------------------------0-0---} 
 
     ...go (Ponte)

Fim Refrão<<


Inicio...

(Riff1)
I was young but I wasn't naive 
I watched helpless as he turned around to leave 
and still I have the pain I have to carry 
A past so deep that even you could not burry if you tried 

(Ponte)

(refrão)
After all this time 
I never thought we'd be here 
Never thought we'd be here 
When my love for you is blind 
But I couldn't make you see it 
Couldn't make you see it 

That I loved you more than you'll ever know 
and part of me died when I let you go 

(Ponte)

(Riff1)
I would fall asleep only in hopes of dreaming 
That everything would be like it was before 
But nights like this it seems are slowly fleeting 
They disappear as reality is crashing to the floor 

(Ponte)

(refrão)
After all this time 
I never thought we'd be here 
Never thought we'd be here 
When my love for you is blind 
But I couldn't make you see it 
Couldn't make you see it 

That I loved you more than you'll ever know 
and part of me died when I let you go 

(refrão)
After all this while 
Would you ever wanna leave it 
Maybe you could not believe it 
That my love for you is blind 
But I couldn't make you see it 
Couldn't make you see it 

That I loved you more than you'll ever know 
and part of me died when I let you go 

and I loved you more than you'll ever know 
and part of me died when I let you go



Ps: Music massa, tem que ouvi bem pra pega o ritmo


Enviada por Sem inscrição
Nº de acordes: 0

Facebook