Metallica

One

Metallica

25.479 exibições
James
E|------------------------------------------|
B|------------------------------------------|
G|---------------------------------------0--|
D|---4---0----4---0-----4---0-----4---0-----|
A|-2---2--------------2---2-----------------|
E|----------3---3---------------3---3-------|

E|-------------------------------------|
B|-------------------------------------|
G|-------------------------------------|
D|---4---0----4----0----4---0----------|
A|-2---2----0---0----------------2---2-|
E|--------------------3---3----0---2---|

kirki
E|-------------------------------------|
B|--------------3p2----3p2----3-3p2----|
G|------2-4b6-------4------2--------4--|
D|--2h4--------------------------------|
A|-------------------------------------|
E|-------------------------------------|

E|----------------------------|
B|-7/5----5/4-4/2---2p0-------|
G|-----7----------4-----2-2/4-|
D|----------------------------|
A|----------------------------|
E|----------------------------|

E|----------------------------|
B|-----2h3-2-----2-3p2--------|
G|-2/4-------2/4-------2-2/4--|
D|----------------------------|
A|----------------------------|
E|----------------------------|

E|---14--19-17-15-14----------|
B|--14---------------15-------|
G|-14-------------------------|
D|----------------------------|
A|----------------------------|
E|----------------------------|

E|---------------------------------|
B|---------------------------------|
G|-7p6-7--9p7-9--11h9-11--6/12-11--|
D|---------------------------------|
A|---------------------------------|
E|---------------------------------|

E|--------------------------------------------------------------------------------|
B|-----------------------------12--------------12-14-15-17-15-14-12-14-14-15-12---|
G|-------11-12-14--------11-12-----------11-12------------------------------------|
D|----12--------------12--------------12------------------------------------------|
A|-14--------------14--------------14---------------------------------------------|
E|--------------------------------------------------------------------------------|

E|----------------------------------------------|
B|----------------------------------------------|
G|----------------------------------------------|
D|---------------------4---00-4-0---4---0-44-0--|
A|---2---2---0-2h4-0-2---2----------------------|
E|-0---2---0----------------------3---3---------|

E|----------------------------------------------------------|
B|----------------------------------------------------------|
G|----------------------------------------------------0-----|
D|---4---00-4-0---4---0-44-0----4---00-4-0----4--0-44-------|
A|-2---2----------------------2---2---------0---0-----------|
E|--------------3---3---------------------------------------|

E|------------------------------------------------------------|
B|------------------------------------------------------------|
G|-----------------------------------------0-7--5-7/5-5-3h5-3-|
D|---4---00-4-0---2/4-2---------0--------7--------------------|
A|------------------------4---5-----7--5----------------------|
E|-3---3--------0-------2---3-----5---------------------------|

E|--------------------------|
B|-------5-7-5--------------|
G|-3-5/7-------7-5/3h5/3----|
D|--------------------------|
A|--------------------------|
E|--------------------------|

E|-------------------------------------------------------|
B|-------------------------------------------------------|
G|-------------------------------------------------------|
D|------4---00-4-0---4---0--44-0----4---00-4-0---4--0-4--|
A|-2--2---2-----------------------2---2------------------|
E|--3--------------3---3-----------------------3---3-----|

E|--------------------------------------------------|
B|--------------------------------------------------|
G|-------------------------0------------------------|
D|---4---00-4-0---4---0-44-----4---00-4-0-----------|
A|-2---2--------0---0-----------------------2---2---|
E|---------------------------3---3--------0---2-----|

E|-------------------------------------------------------|
B|-------------------------------------------------------|
G|-------------------------------------------------------|
D|------4---00-4-0---4---0--44-0----4---00-4-0---4--0-4--|
A|----2---2-----------------------2---2------------------|
E|-----------------3---3-----------------------3---3-----|

E|--------------------------------------------------|
B|--------------------------------------------------|
G|-------------------------0------------------------|
D|---4---00-4-0---4---0-44-----4---00-4-0-----------|
A|-2---2--------0---0-----------------------2---2---|
E|---------------------------3---3--------0---2-----|

E|-------------------------------|
B|-------------------------------|
G|-------------------------------|
D|-------------4-2-4-5-4-2-5-7---|
A|-5-7-9-7-5-4-2-0-2-3-2-0-3-5---|
E|-3-5-7-5-3-2-------------------|

E|-------------------------------|
B|-------------------------------|
G|-------------------------------|
D|-------------4-2-4-5-4-2-5-7---|
A|-5-7-9-7-5-4-2-0-2-3-2-0-3-5---|
E|-3-5-7-5-3-2-------------------|

E|-------------------------------------------------|
B|-------------------------------5-7-5-------------|
G|-----0-7-5-7/5-5--3h5-3--3-5/7-------7-5/3h5/3---|
D|---7---------------------------------------------|
A|-5-----------------------------------------------|
E|-------------------------------------------------|

E|-------------------------------------------------|
B|-------------------------------5-7-5-------------|
G|-----0-7-5-7/5-5--3h5-3--3-5/7-------7-5/3h5/3---|
D|---7---------------------------------------------|
A|-5-----------------------------------------------|
E|-------------------------------------------------|

E|-------------------------------------------------------|
B|-------------------------------------------------------|
G|-------------------------------------------------------|
D|------4---00-4-0---4---0--44-0----4---00-4-0---4--0-4--|
A|-2--2---2-----------------------2---2------------------|
E|--3--------------3---3-----------------------3---3-----|

E|--------------------------------------------------|
B|--------------------------------------------------|
G|-------------------------0------------------------|
D|---4---00-4-0---4---0-44-----4---00-4-0-----------|
A|-2---2--------0---0-----------------------2---2---|
E|---------------------------3---3--------0---2-----|

E|-------------------------------------------------------|
B|-------------------------------------------------------|
G|-------------------------------------------------------|
D|------4---00-4-0---4---0--44-0----4---00-4-0---4--0-4--|
A|----2---2-----------------------2---2------------------|
E|-----------------3---3-----------------------3---3-----|

E|--------------------------------------------------|
B|--------------------------------------------------|
G|-------------------------0------------------------|
D|---4---00-4-0---4---0-44-----4---00-4-0-----------|
A|-2---2--------0---0-----------------------2---2---|
E|---------------------------3---3--------0---2-----|

E|-------------------------------|
B|-------------------------------|
G|-------------------------------|
D|-------------4-2-4-5-4-2-5-7---|
A|-5-7-9-7-5-4-2-0-2-3-2-0-3-5---|
E|-3-5-7-5-3-2-------------------|

E|-------------------------------|
B|-------------------------------|
G|-------------------------------|
D|-------------4-2-4-5-4-2-5-7---|
A|-5-7-9-7-5-4-2-0-2-3-2-0-3-5---|
E|-3-5-7-5-3-2-------------------|

E|-------------------------------------------------|
B|-------------------------------5-7-5-------------|
G|-----0-7-5-7/5-5--3h5-3--3-5/7-------7-5/3h5/3---|
D|---7---------------------------------------------|
A|-5-----------------------------------------------|
E|-------------------------------------------------|

E|--------------------|
B|-7-8-10-8-7---7-8---|
G|------------7-----7-|
D|--------------------|
A|--------------------|
E|--------------------|

E|-7/10-8-7----7-8----|
B|----------10-----8--|
G|--------------------|
D|--------------------|
A|--------------------|
E|--------------------|

E|-17-14----17--17-15-14-15----14-15-19p17p15-19p17p15-19p17p15-10-|
B|-------15-----------------15-------------------------------------|
G|-----------------------------------------------------------------|
D|-----------------------------------------------------------------|
A|-----------------------------------------------------------------|
E|-----------------------------------------------------------------|

E|---------------------20p15p12-20p15p12-20p12h13p12-20p12h13p12-|
B|-8-8-8-8/13-13-13-13-------------------------------------------|
G|-7-7-7-7/12-12-12-12-------------------------------------------|
D|---------------------------------------------------------------|
A|---------------------------------------------------------------|
E|---------------------------------------------------------------|

E|-------------------------------|
B|-------------------------------|
G|-------------------------------|
D|-------------4-2-4-5-4-2-5-7---|
A|-5-7-9-7-5-4-2-0-2-3-2-0-3-5---|
E|-3-5-7-5-3-2-------------------|

E|-------------------------------|
B|-------------------------------|
G|-------------------------------|
D|-------------4-2-4-5-4-2-5-7---|
A|-5-7-9-7-5-4-2-0-2-3-2-0-3-5---|
E|-3-5-7-5-3-2-------------------|

E|------------------------------------------------|
B|------------------------------------------------|
G|------------------------------------------------|
D|-------------4--7-9-10--4---4---5-5---5--7-9-10-|
A|-5-7-9-7-5-4-2--5-7-8---2---2---3-3---3--5-7-8--|
E|-3-5-7-5-3-2--------------0---0-----0-----------|

E|------------------------------------------------|
B|------------------------------------------------|
G|------------------------------------------------|
D|-------------4--7-9-10--4---4---5-5---5--7-9-10-|
A|-5-7-9-7-5-4-2--5-7-8---2---2---3-3---3--5-7-8--|
E|-3-5-7-5-3-2--------------0---0-----0-----------|

E|------------------------------------------------|
B|------------------------------------------------|
G|------------------------------------------------|
D|-------------4--7-9-10--4---4---5-5---5--7-9-10-|
A|-5-7-9-7-5-4-2--5-7-8---2---2---3-3---3--5-7-8--|
E|-3-5-7-5-3-2--------------0---0-----0-----------|

E|------------------------------------------------|
B|------------------------------------------------|
G|------------------------------------------------|
D|-------------4--7-9-10--4---4---5-5---5--7-9-10-|
A|-5-7-9-7-5-4-2--5-7-8---2---2---3-3---3--5-7-8--|
E|-3-5-7-5-3-2--------------0---0-----0-----------|

E|---------------------------------|
B|---------------------------------|
G|---------------------------------|
D|-2-0-2-3-3-3-3-------------------|
A|-3-2-3-4-4-4-4-4---4---5-5-5-5---|
E|---------------2-0-2-0-3-3-3-3---|


E|---------------------------------|
B|---------------------------------|
G|---------------------------------|
D|-2-0-2-3-3-3-3-------------------|
A|-3-2-3-4-4-4-4-4---4---5-5-5-5---|
E|---------------2-0-2-0-3-3-3-3---|

E|--------------------------------------------------------------|
B|--------------------------------------------------------------|
G|--------------------------------------------------------------|
D|-----------2-----------2-----------2-----------2-----------2~~|
A|-----------2-----------2-----------2-----------2-----------2~~|
E|-0-0-0-0-0---0-0-0-0-0---0-0-0-0-0---0-0-0-0-0---0-0-0-0-0----|

E|-------------------------------------------------------------------|
B|-------------------------------------------------------------------|
G|-------------------------------------------------------------------|
D|-----------2----------2~~-----------2-------------2-----------2----|
A|-----------2----------2~~-----------2-3-----------2-----------2-3--|
E|-0-0-0-0-0--0-0-0-0-0-----0-0-0-0-0---1-0-0-0-0-0---0-0-0-0-0---1--|

E|----------------------------------------------------------|
B|----------------------------------------------------------|
G|----------------------------------------------------------|
D|-----------2-----------2-------------2-----------2--------|
A|-----------2-----------2-3-----------2-----------2-3------|
E|-0-0-0-0-0---0-0-0-0-0---1-0-0-0-0-0---0-0-0-0-0---1------|

E|----------------------------------------------------------|
B|----------------------------------------------------------|
G|----------------------------------------------------------|
D|-----------2-----------2-----------2-----------2----------|
A|-----------2-----------2-----------2-----------2-3--------|
E|-0-0-0-0-0---0-0-0-0-0---0-0-0-0-0---0-0-0-0-0---1--------|

E|----------------------------------------------------------|
B|----------------------------------------------------------|
G|----------------------------------------------------------|
D|-----------2-----------2-----------2-----------2----------|
A|-----------2-----------2-----------2-----------2-3--------|
E|-0-0-0-0-0---0-0-0-0-0---0-0-0-0-0---0-0-0-0-0---1--------|

E|----------------------------------------------------------|
B|----------------------------------------------------------|
G|----------------------------------------------------------|
D|----------------------------------------------------------|
A|-----------7-----------7/8-----------5-----------5/8------|
E|-0-0-0-0-0---0-0-0-0-0-----0-0-0-0-0---0-0-0-0-0----------|

E|----------------------------------------------------------|
B|----------------------------------------------------------|
G|----------------------------------------------------------|
D|----------------------------------------------------------|
A|-----------7-----------7-8-----------5-----------5-2------|
E|-0-0-0-0-0---0-0-0-0-0-----0-0-0-0-0---0-0-0-0-0----------|

E|----------------------------------------------------------|
B|----------------------------------------------------------|
G|----------------------------------------------------------|
D|-----------2-----------2-----------2-----------2----------|
A|-----------2-----------2-----------2-----------2-3--------|
E|-0-0-0-0-0---0-0-0-0-0---0-0-0-0-0---0-0-0-0-0---1--------|

E|----------------------------------------------------------|
B|----------------------------------------------------------|
G|----------------------------------------------------------|
D|-----------2-----------2-----------2-----------2----------|
A|-----------2-----------2-----------2-----------2-3--------|
E|-0-0-0-0-0---0-0-0-0-0---0-0-0-0-0---0-0-0-0-0---1--------|

E|------------------------------------------------|
B|------------------------------------------------|
G|------------------------------------------------|
D|-------2-------2--------------2-------2---------|
A|-------2-------2-----3--------2-------2-----3---|
E|-0-0-0---0-0-0---0-0-1--0-0-0---0-0-0---0-0-1---|

E|------------------------------------------------|
B|------------------------------------------------|
G|------------------------------------------------|
D|-------2-------2--------------2-------2---------|
A|-------2-------2-----3--------2-------2-----3---|
E|-0-0-0---0-0-0---0-0-1--0-0-0---0-0-0---0-0-1---|

E|----------------------------------------------|
B|----------------------------------------------|
G|----------------------------------------------|
D|----------------------------------------------|
A|----------------------------------------------|
E|-000000-0000000-000000-0000000-00000000000----|

E|------------------------------------------------|
B|------------------------------------------------|
G|------------------------------------------------|
D|-------2-------2--------------2-------2---------|
A|-------2-------2-----3--------2-------2-----3---|
E|-0-0-0---0-0-0---0-0-1--0-0-0---0-0-0---0-0-1---|

E|------------------------------------------------|
B|------------------------------------------------|
G|------------------------------------------------|
D|-------2-------2--------------2-------2---------|
A|-------2-------2-----3--------2-------2-----3---|
E|-0-0-0---0-0-0---0-0-1--0-0-0---0-0-0---0-0-1---|

E|----------------------------------------------|
B|----------------------------------------------|
G|----------------------------------------------|
D|----------------------------------------------|
A|----------------------------------------------|
E|-000000-0000000-000000-0000000-00000000000----|

E|-19p15p12-19p15p12-19p15p12-19p15p12-20p15p12-20p15p12-20p15p12-20p15p12-|
B|-------------------------------------------------------------------------|
G|-------------------------------------------------------------------------|
D|-------------------------------------------------------------------------|
A|-------------------------------------------------------------------------|
E|-------------------------------------------------------------------------|

E|-------------------------------------------------------------------------|
B|-19p15p12-19p15p12-19p15p12-19p15p12-20p15p12-20p15p12-20p15p12-20p15p12-|
G|-------------------------------------------------------------------------|
D|-------------------------------------------------------------------------|
A|-------------------------------------------------------------------------|
E|-------------------------------------------------------------------------|

E|-------------------------------------------------------------------------|
B|-------------------------------------------------------------------------|
G|-19p15p12-19p15p12-19p15p12-19p15p12-20p15p12-20p15p12-20p15p12-20p15p12-|
D|-------------------------------------------------------------------------|
A|-------------------------------------------------------------------------|
E|-------------------------------------------------------------------------|

E|--------------------------------|
B|--------------------------------|
G|-13-12-11-12-11-9-11-10-9-6-----|
D|--------------------------------|
A|--------------------------------|
E|--------------------------------|

E|----------------17-17-17-17-19-19-19-19-21b-21b--|
B|-15-15-15-15-15----------------------------------|
G|-------------------------------------------------|
D|-------------------------------------------------|
A|-------------------------------------------------|
E|-------------------------------------------------|

Palhetando bem Rapido
E|-15h17h19p17p15h17h19p17p15h17h19p17p15-----|
B|--------------------------------------------|
G|--------------------------------------------|
D|--------------------------------------------|
A|--------------------------------------------|
E|--------------------------------------------|

E|-18p16p15-18p16p15-18p16p15-18p16p15-18p16p15-|
B|----------------------------------------------|
G|----------------------------------------------|
D|----------------------------------------------|
A|----------------------------------------------|
E|----------------------------------------------|

E|-15-15-17-17-19-19----------------------------------------|
B|-------------------19-19-17-17-15-15----------------------|
G|-------------------------------------13-15-17-15-13bbb----|
D|----------------------------------------------------------|
A|----------------------------------------------------------|
E|----------------------------------------------------------|

E|----------------------------------------------------------|
B|------------------------15-------15-------15-17-17--------|
G|-----------------17-17--15-17-17-15-17-17-15-17-17--------|
D|-14-15-17-------------------------------------------------|
A|----------17-15-------------------------------------------|
E|----------------------------------------------------------|

E|------------------------15----15-----15-----15------------|
B|-------15-------15--18b----18b---18b----18b---------------|
G|-17-17-15-17-17-15----------------------------------------|
D|----------------------------------------------------------|
A|----------------------------------------------------------|
E|----------------------------------------------------------|

E|------------------------------------------------|
B|------------------------------------------------|
G|------------------------------------------------|
D|-------2-------2--------------2-------2---------|
A|-------2-------2-----3--------2-------2-----3---|
E|-0-0-0---0-0-0---0-0-1--0-0-0---0-0-0---0-0-1---|

E|------------------------------------------------|
B|------------------------------------------------|
G|------------------------------------------------|
D|-------2-------2--------------2-------2---------|
A|-------2-------2-----3--------2-------2-----3---|
E|-0-0-0---0-0-0---0-0-1--0-0-0---0-0-0---0-0-1---|

E|---------------------------------------|
B|-5-7-8-7-5-7-8-10-8-7-5-7-8-7-5--------|
G|--------------------------------8-7-5--|
D|---------------------------------------|
A|---------------------------------------|
E|---------------------------------------|

E|----------------------------------------------------------------|
B|--5-7-8-7-5-7-8-10-8-7-5-7-8-7-5--------------------------------|
G|---------------------------------8-7-5-4-5-4--------------------|
D|---------------------------------------------7-5-4--2-3-2-------|
A|----------------------------------------------------------5-3-2-|
E|----------------------------------------------------------------|

E|------------------------------------------------|
B|------------------------------------------------|
G|------------------------------------------------|
D|-------2-------2--------------2-------2---------|
A|-------2-------2-----3--------2-------2-----3---|
E|-0-0-0---0-0-0---0-0-1--0-0-0---0-0-0---0-0-1---|

E|------------------------------------------------|
B|------------------------------------------------|
G|------------------------------------------------|
D|-------2-------2--------------2-------2---------|
A|-------2-------2-----3--------2-------2-----3---|
E|-0-0-0---0-0-0---0-0-1--0-0-0---0-0-0---0-0-1---|

E|------------------------------------------------|
B|------------------------------------------------|
G|------------------------------------------------|
D|-------2-------2--------------2-------2---------|
A|-------2-------2-----3--------2-------2-----3---|
E|-0-0-0---0-0-0---0-0-1--0-0-0---0-0-0---0-0-1---|

E|------------------------------------------------|
B|------------------------------------------------|
G|------------------------------------------------|
D|-------2-------2--------------2-------2---------|
A|-------2-------2-----3--------2-------2-----3---|
E|-0-0-0---0-0-0---0-0-1--0-0-0---0-0-0---0-0-1---|

E|-------------------------------------------------|
B|-------------------------------------------------|
G|-------------------------------------------------|
D|-----5-----5-----5-----5-------2-------2---------|
A|-----5-----5-----5-----5-------2-------2-----3---|
E|-0-0---0-0---0-0---0-0---0-0-0---0-0-0---0-0-1---|

E|-------------------------------------------------|
B|-------------------------------------------------|
G|-------------------------------------------------|
D|-----5-----5-----5-----5-------2/3---------------|
A|-----5-----5-----5-----5-------2/3-----3-----3---|
E|-0-0---0-0---0-0---0-0---0-0-0-----0-0-1-0-0-1---|

E|---------------------------------------------------------------|
B|---------------------------------------------------------------|
G|---------------------------------------------------------------|
D|-------2/3-------------------2/3-------------------2/3------5--|
A|-------2/3-----3-----3-------2/2-----3-----3-------2/3------5--|
E|-0-0-0-----0-0-1-0-0-1-0-0-0-----0-0-1-0-0-1-0-0-0------0-0----|

E|------------------------------------------------|
B|------------------------------------------------|
G|------------------------------------------------|
D|-------2-------2--------------2-------2---------|
A|-------2-------2-----3--------2-------2-----3---|
E|-0-0-0---0-0-0---0-0-1--0-0-0---0-0-0---0-0-1---|

E|----------------------------------------------|
B|----------------------------------------------|
G|----------------------------------------------|
D|----------------------------------------------|
A|----------------------------------------------|
E|-000000-0000000-000000-0000000-00000000000----|


Enviada por Sem inscrição
Nº de acordes: 0

Facebook