Tom: D

Intro: 
e--------------0-0-0-------------------------
B-------5-5/7--7-7-0-------------------------
G-0-5-7-5-5/7--7-7-5-------------------------
D-0-5-7--------0-0-5-------------------------
A------------------0-------------------------
E--------------------------------------------

e--------------5-5-7-------------------------
B-------5-5/7--7-7-8-------------------------
G-0-5-7-5-5/7--7-7-9-------------------------
D-0-5-7------------0-------------------------
A--------------------------------------------
E--------------------------------------------
                   
                  (5X)  (7X)
e------------------0-------------------------
B-------5-5/7--7-7-0-----3-------------------
G-0-5-7-5-5/7--7-7-5-----4-------------------
D-0-5-7--------0-0-5-----5-------------------
A------------------0-----5-------------------
E--------------------------------------------

Verso 1:
D              G
  Sabe, quando a gente tem vontade de encontrar
              D
A novidade de uma pessoa
          G
Quando o tempo passa rápido
                          D
Quando você está ao lado dessa pessoa
        G          D/F#         Em
Quando dá vontade de ficar nos laços dela
   D     Em       A
E nunca mais sair…

Verso 2:
D             G
 Sabe, quando a felicidade invade
                        D
Quando pensa na imagem da pessoa
        G
Quando lembra que seus lábios encontraram
                 Bm
Outros lábios de uma pessoa
     Em
E o beijo esperado ainda está molhado
       A               G
E guardado ali em sua boca
       A
Que se abre e sorri feliz
                         Bm
Quando fala o nome daquela pessoa
         G
Quando quer beijar de novo muitos lábios
              D
Desejados da sua pessoa
        G              D/F#     Em
Quando quer que acabe logo a viagem
      D            Em            A
Que levou ela pra longe daqui…

Verso 3:
D               G
  Sabe, quando passa a nuvem brasa
                                   D
Abre o corpo, sopro do ar que traz essa pessoa
         G
Quando quer ali deitar, se alimentar
                Bm
E entregar seu corpo pra pessoa
        Em
Quando pensa porque não disse a verdade
                        A
É que eu queria que ela estivesse aqui…

(intro)

Verso 4:
D              G
  Sabe, quando a felicidade invade
                        D
Quando pensa na imagem da pessoa
        G
Quando lembra que seus lábios encontraram
                 Bm
Outros lábios de uma pessoa
     Em
E o beijo esperado ainda está molhado
       A               G
E guardado ali em sua boca
       A
Que se abre e sorri feliz
                       Bm
Quando fala o nome daquela pessoa
         G
Quando quer beijar de novo muitos lábios
              D
Desejados da sua pessoa
        G            D/F#           Em
Quando pensa porque não disse a verdade
             D          Em              A
É que eu queria que ela estivesse aqui…
 G      A
Sei...
    D
Eu sei.


Enviada por Sem inscrição
Correção por equipepegacifras
Nº de acordes: 6

Facebook