Nenhum de Nós

Camila, Camila (Tablatura)

Nenhum de Nós

9.185 exibições
Tom: D
Intro: D6.9

e-------0----------|
b---3-----3--------|
g-----2-----2------|Intr.: 8x
d-0-----------4-0--|
a------------------|
E------------------|


Riff 1   D9                  Em7                          G6                         D9
e|-------0-------------0-------------0-------------0-------------0-----------0----------0-------------0------
b|---3-----3-------3-----3-------3-----3-------3-----3-------3-----3-----3-----3----3-----3-------3-----3----
g|-----2-----2-------2-----2-------2-----2-------2-----2-------0-----------0----------2-----2-------2-----2--
d|-0-----------4-0-----------4-2-----------4-2------------------------------------0-----------4-0------------
a|-----------------------------------------------------------------------------------------------------------
E|---------------------------------------------------------3-----------3-------------------------------------

 Riff 2          D9                       Em7                              G6                   D9
e-------0-------------0--------------2---------------2-------------0------------0-----------------0-------|
b---3-----3-------3-----3------3-------3-------3-------3-------3-----3------3-----3----3------3-----3-----|
g-----2-----2-------2-----2------4-------4---4---4-------4-------0------------0----------2------2-----2---|
d-0-----------4-0------------5-----5-------5-------5---------------------------------0------0-------------|
a---------------------------------------------------------------------------------------------------------|
E------------------------------------------------------------3-----------3--------------------------------|

  D9        Riff 1
Depois da última noite de festa
   Em                      G6         D9
Chorando e esperando amanhecer, amanhecer
As coisas aconteciam
Riff 2   Em                     G6          D9
Com alguma explicação, com alguma explicação
Depois da última noite de chuva  
   Em                     G6           D9
Chorando e esperando amanhecer, amanhecer
Às vezes peço a ele
          Em             G6   D9
Que vá embora, que vá embora, oh
   C      Bm      Am7
Camila, Camila, Camila
  G9
E eu que tenho medo até de duas mãos
 F7+
Mas o ódio cega e você não percebe
Bm               C
Mas o ódio cega, ah
  G9
E eu que tenho medo até do seu olhar
F7+
Mas o ódio cega e você não percebe
Bm               C  Intr.: (D9 Em G6 D9)
Mas o ódio cega, ah
D9
As lembranças do silêncio
          Em              G6        D9
Daquelas tardes, daquelas tar...des
Na memória do desespero
          Em            G6   D9
Naquelas marcas daquelas marcas

Havia algo de insano
          Em             G6   D9
Naqueles olhos, olhos insanos
Os olhos que passavam o dia
        Em           G6   D9
A me vigiar, a me vigiar, oh
   C      Bm      Am7
Camila, Camila, Camila (2x)

    |   C
    | E eu que tinha apenas dezessete anos
    |    Bm
    | Baixava minha cabeça pra tudo
(2x)|         Am7
    | E era assim que as coisas aconteciam
    |         D/A
    | E era assim que eu via tudo acontecer

   C      Bm      Am7
Camila, Camila, Camila (2x)

Por: Everton Rebelo Figueiredo (everton@brturbo.com)


Enviada por Sem inscrição
Nº de acordes: 12

Facebook