Nenhum de Nós

Paz E Amor (Acústico Ao Vivo 2)

Nenhum de Nós

1.386 exibições
Introdução com um  Dedilhado da seqüência do refrão
 (A9  G  Bm   D  A9    G    Bm   D    A) 2x



              A9      G      Bm     D  
Flores na cabeça/Nossos pés descalços        
A9  G   Bm       
Nossa vida toda de
D    A               
Paz e amor... Paz e Amor   


Após o dedilhado da introdução, entra a batera e logo em seguida vem o solinho:
E|--9-7------------------------9---7-9-7-9-10-9-7----10-9-10/12-9---9--9-10-7-9-|----|
B|------10-9-10-9-7----------7--------------------10----------------------------|    |
G|------------------9-6--7-9----------------------------------------------------| 2x |
D|------------------------------------------------------------------------------|    |
A|------------------------------------------------------------------------------|    |
E|------------------------------------------------------------------------------|----|

Final do solinho:
E|--10-9-7----10-9-7----9-6/7--|
B|---------10--------10--------|
G|-----------------------------|
D|-----------------------------|
A|-----------------------------|
E|-----------------------------|


 A          Amaj7         A9         A
Chame a família Avise o tio e o avô
      G           G/Bb
Hoje todos vão saber
               A           A9
Que a sua garotinha se casou
A          Amaj7         A9         A
Proibida, Escondida e Muito jovem pra escolher
      G           G/Bb
Sua mãe quase desmaia
           A              A9
E seu pai diz que quer morrer
A          Amaj7         A9         A
Eu já fui seu namorado Por isso ela me chamou
G        D/F#      A        A9
Para que eu fosse testemunha dessa história
G        D/F#         E         E7M
Que seja linda como um dia foi a nossa
          
    A9                G
Com flores na cabeça
D/F#             E              
Nossos pés descalços
    A9                    G
Nossa vida toda de
D/F#    E       A     A9        *RIFF
Paz e amor      (paz e amor..)

 A          Amaj7         A9         A
Avise a vizinha Mande chamar o seu irmão
G           G/Bb
Eles tem que conhecer
    A              A9
A sua mais nova paixão
A          Amaj7         A9         A
Um estudante dependente Da mesada de seu pai
  G      D/F#      A         A9
Um garoto com os braços tatuados
 G    D/F#     E           E7M
E por você perdidamente apaixonado

    A9                G
Com flores na cabeça
D/F#             E              
Nossos pés descalços
    A9                    G
Nossa vida toda de
D/F#    E       A     A9        *RIFF
Paz e amor      (paz e amor..)


*O riff é uma vez de cada:
e|------------5--|
B|----------5----|
G|--6-6-6h7------|

e|------------7-5--|
B|----------5------|
G|--6-6-6h7--------|


Enviada por Sem inscrição
Nº de acordes: 10

Facebook