Nenhum de Nós

Você Vai Lembrar De Mim

Nenhum de Nós

1.189 exibições
Tom: A
Introdução : 4x(A - A4)


     A         A4
e|--------------------|
B|------5-------6p5---|
G|----6---6h7-------7-|
D|--------------------|
A|--0-----------------|
E|--------------------|

A            A4
Quando eu te vejo 
A          A4
Espero teu beijo
A            A4
Não sinto vergonha
A         A4
Apenas desejo

A             A4
Minha boca encosta 
A               A4
Em sua boca que treme
A             A4
Meus olhos eu fecho
A                  A4
Mas os seus estão abertos

Bm                  E
Tudo bem se não deu certo
Bm                            E
Eu achei que nós chegamos tão perto
F#m                           D
Mas agora - com certeza eu enxergo
              E
Que no fim eu amei por nós dois

A          A4     A       A4
Esse foi um beijo de despedida
A             A4        A          A4
Que se dá uma vez só na vida
A         A4     A  A4
Que explica tudo sem brigas 
A                  A4       A        A4
E clareia o mais escuro dos dias

Bm                   E
Tudo bem se não deu certo
      Bm                       E
Eu achei que nós chegamos tão perto
     F#m                      D
Mas agora - com certeza eu enxergo
             E
Que no fim eu amei por nós dois
          A        E                 Bm
Mas você lembra! Você vai lembrar de mim
              D
Que o nosso amor valeu a pena
A           E              Bm
Lembrar é o nosso final feliz
      D                          E
você vai lembrar...vai lembrar...sim...
                     A
você vai lembrar de mim 
  
e|-------------------------------------------------------  
B|-------------------------------------------------------
G|--7p6---7p6--------------------------------------------
D|---------------9p7--6--7>9--7-------6h7--7--7>9--7-----
A|----------------------------------7h9------------------
E|-------------------------------------------------------

e|----------------------------------------------------------  
B|----------------------------------------------------------
G|--7p6---7p6-----------------------------------------------
D|---------------9p7--6--7>9--7-------6h7--7--7>9--7-------
A|----------------------------------7h9---------------------
E|----------------------------------------------------------


e|--------------------------------------------------------------------  
B|--------------------------------------------------------------------
G|--7p6--7--9--7--6---------------------------------------------------
D|----------------------7--7>9--7--6--6h7>9--9h11>12--12h14>15--15>17-
A|--------------------------------------------------------------------
E|--------------------------------------------------------------------

        A        E                 Bm
Mas você lembra! Você vai lembrar de mim
              D
Que o nosso amor valeu a pena
A           E              Bm
Lembrar é o nosso final feliz
      D         
você vai lembrar

        A        E                 Bm
Mas você lembra! Você vai lembrar de mim
              D
Que o nosso amor valeu a pena
A           E              Bm
Lembrar é o nosso final feliz
      D                          E              A
você vai lembrar...vai lembrar...sim...


Enviada por Sem inscrição
Nº de acordes: 6

Facebook