Raimundos

A Mais Pedida

Raimundos

6.700 exibições
Tom: C
Intro: ( C G Am) Dm (C G Am) Dm
h = hammer-on
p = pull-off
Intro (C  G  Am):
|---------------------------------------------------------------------
|--------8--8-8/10-10/8-8------------------8--8-8/10-10/8-8-----------
|-7-10/9-----------------10/9-9-9-5/7-10/9-----------------10/9-9-9---
|---------------------------------------------------------------------
|---------------------------------------------------------------------
|---------------------------------------------------------------------
---------------------------------------------------------------------|
----------8--8-8/10-10/8-8-------------------------------------------|
-5/7-10/9-----------------10/9-9-9-5/7-9-5/7~-----7h9--7h9-----------|
---------------------------------------------------------------------|
---------------------------------------------------------------------|
---------------------------------------------------------------------|
C G Am (2x)
C G Am Dm
C                           (C)
Nesse show não entra menor,
                 (C)
Um homem censurou,  tava de mau humor
F                  Dm                  Am  (G)
Não tinha dormido bem porque não levantou
C                     (C)
Pense como ia ser bom
                     (C)
Se nós fizesse um som  que ultrapassasse
      F                           A     
A barreira das AM, FM e dos elevador
    G            C
Aí sim, dá um selinho
                          Dm
E mostra o seio that you saw
             F                   Am
Quando eu te vi o meu calção se abriu
          Dm                      G                                   C
Caiu uma lágrima (solo1) de um olho, que se for dos dois então é namoro
Solo1 (aparece no fundo da música):
|---------------------------|
|---------------------------|
|-9h10p9--9--7~---7/9--9/7~-|
|---------------------------|
|---------------------------|
|---------------------------|
C                  F                       
Meu cabelo é ruim, mas meu terno é de linho
C                       F                 Dm
Vou ser seu salgadinho, cê vai gostar de mim
        G             C
Se eu tocar no seu radinho
             F                     C
Choro até o fim, só pra rimar com inho
                    F                         Dm
Pois se eu ganhar "din din" cê vai gostar de mim
        G             C
Se eu tocar no seu radinho
Solo 2 (C  G  Am):
|----------------------------------------------------------------
|-8-8--8-8/10-10/8-8------------------8--8-8/10-10/8-8-----------
|-------------------10/9-9-9-5/7-10/9-----------------10/9-9-9---
|----------------------------------------------------------------
|----------------------------------------------------------------
|----------------------------------------------------------------
----------------------------------------------|
----------8--8-8/10-10/8-8--------------------|
-5/7-10/9-----------------10/9-9-9-5/7-9-5/7~-|
----------------------------------------------|
----------------------------------------------|
----------------------------------------------|
C                      (C)
Por favor, seu locutor,
                (C)                     (C)
Ao menos uma vez,  melhor se fossem três
F                                     (Am  G  C) 2x
Toca o nosso som aí que tu me faz feliz
Dm                                (Am  G  C) 2x
Se não tocar eu quebro o seu nariz
Solo 3 (C  Dm  F  Am  Dm  G):
|------------------------------------------------------------------------
|------------------------------------------------------------------------
|--------------------------------------------5---------------------------
|----------------------------7-7-7-7-5---5h7---7-5-----------------------
|-3---3-5-7-5-3----5-7-8-7-5-----------7-----------7--8-7-8-7-8-7-8-7/5~-
|---3------------5-------------------------------------------------------
-----------|--------------------------------------------------8----------
-----------|---------5-------------------10-10-10-10-8---8h10---10--8----
-----------|-5---5-7---7-5----7-9-10-9-7---------------9--------------9--
-----------|---5------------7--------------------------------------------
-7-5---5-7-|-------------------------------------------------------------
-----8-----|-------------------------------------------------------------
--------------------------------------------15-----15---------|
------------------------10-8~---13-12~---15^----15^----15^-13-|
-10-9-10-9-10-9-10-9/7~---------------------------------------|
--------------------------------------------------------------|
--------------------------------------------------------------|
--------------------------------------------------------------|
|Refrão| Vocalização

C              F
Chame, chame... musica chame girl....
C              F  
Chame, chame.. musica chame girl....
     Dm          G             C
Só assim preu tocar no seu radinho
Repete solo 2.


Enviada por Sem inscrição
Nº de acordes: 6

Facebook