Ritchie Valens

La Bamba

Ritchie Valens

7.382 exibições
Tom: C

Intro: 

E |--------------------|-----------------------------|
B |--------------------|-----------------------------|
G |---------------2-0--|-------------------------2-0-|
D |---------2---3------|-------0-3-3-2-0---2---3-----|
A |---0-2-3---3--------|-----2-----------3---3-------|
E |-3------------------|---3-------------------------|

               C    F  G     F            C
Para bailar la bamba,      Para bailar la bamba,
   F   G      F        C     F  G    F         C      F
se necesita un poca de gracia,     una poca de gracia para mi para
G   F          C  F  G F        C         F     G F
tiy ariba y ariba,     ay ariba ariba por ti se re
          C       F     G F
por ti se re, por ti se re
          C       F  G     F         C
yo no soy marinero,    yo no soy marinero
    F   G   F        C        F   G F
soy capitan, soy capitan, soy capitan
C  F   G    F
bamba, bamba
C  F   G    F
bamba, bamba
C  F   G    F
bamba, bamba
C F G F
bamba
               C     F  G   F             C
Para bailar la bamba,      Para bailar la bamba,
   F   G       F       C     F  G     F       C      F
se necesita un poca de gracia,    una poca de gracia para mi para
G      F      C    F  G  F
tiy ariba y ariba

(solo)
(p)  pull off
(h)  hammer on
 /   slide up
    slide down
(tr) tremolo picking

E |----------------------------|-----------------------------|
B |----------------------------|-------0--0(h)2--0------0----|
G |-------(tr)-0---------------|-0--2----------------2-----2-|
D |----------------------------|-----------------------------|
A |----------------------------|-----------------------------|
E |----------------------------|-----------------------------|

E |----------------------------|-----------------------------|
B |----------------------------|-----------------------------|
G |--0--2--0-----0--------0----|-----------------------------|
D |-----------3-----2--3-------|-2--3--0--2-----0------------|
A |----------------------------|-------------3-----2--3--0---|
E |----------------------------|-----------------------------|

E |----------------------------|-----------------------0--1--|
B |----------------------------|--------------0--1--3--------|
G |----------------------------|--------0--2-----------------|
D |-------------------------0--|--2--3-----------------------|
A |-2-----0--------0--2--3-----|-----------------------------|
E |----3-----1--3--------------|-----------------------------|

      (tremolo for 1 bar)
E |-----0--1-----0--1----------|----------(tr)-3-------------|
B |--3--------3----------------|-----------------------------|
G |----------------------------|-----------------------------|
D |----------------------------|-----------------------------|
A |----------------------------|-----------------------------|
E |----------------------------|-----------------------------|

(as soon as you come out of the
 tremolo from previous bar, slide
 up to the 12 fret then back
 without picking)

E |--------3/123--------------|-5--3(h)5(p)3--1(h)3(p)1(p)0-|
B |----------------------------|-----------------------------|
G |----------------------------|-----------------------------|
D |----------------------------|-----------------------------|
A |----------------------------|-----------------------------|
E |----------------------------|-----------------------------|

E |-1-----0--------0-----------|-----------------------------|
B |----3-----1--3-----1--3-----|--0(h)1(p)0-----0------------|
G |----------------------------|-------------2-----2---------|
D |----------------------------|-----------------------------|
A |----------------------------|-----------------------------|
E |----------------------------|-----------------------------|

E |----------------------------|-----------------------------|
B |----------------------------|-----------------------------|
G |--0(h)2(p)0-----0--------0--|-----------------------------|
D |-------------3-----2--3-----|---2--3----------------------|
A |----------------------------|---------2(h)3(p)2(p)0-------|
E |----------------------------|------------------------3----|

   (tremolo for 1 bar)              (tremolo for 1 bar)
E |----------------------------|--0--1--(tr)-3---------------|
B |----------------------------|-----------------------------|
G |-------------(tr)-0---------|-----------------------------|
D |---0--2--3------------------|-----------------------------|
A |----------------------------|-----------------------------|
E |----------------------------|-----------------------------|

E |----------------------------|------------------------------|
B |----------------------------|-----------1--0---------------|
G |----------------------------|--0--0--2--2--0-------0--2--2-|
D |----------------------------|--2--0--3----------0--0--3--3-|
A |------0--2--7--------------|----------------2--2----------|
E |---3--------8--------------|----------------3-------------|

E |----------------------------||
B |---------------------1--0---||
G |---0--0-----0--0--2--2--0---||
D |---2--0--2--2--0--3---------||
A |---------3------------------||
E |----------------------------||

               C     F  G      F          C
Para bailar la bamba,      Para bailar la bamba,
   F   G        F      C     F  G        F     C      F
se necesita un poca de gracia,     una poca de gracia para mi para
G   F        C    F  G      F     C       F     G  F
tiy ariba y ariba,     ay ariba ariba por ti se re
          C       F     G F
por ti se re, por ti se re

C  F   G    F
bamba, bamba
C  F   G    F
bamba, bamba
C  F   G    F
bamba, bamba
C  F   G    F
bamba, bamba


Enviada por Sem inscrição
Correção por equipepegacifras
Nº de acordes: 3

Facebook