Rosa de Saron

Estar Com Você

Rosa de Saron

2.300 exibições
Tom: G
Intro: 
                                                                    
E||----------------------|---------------------|-------------------|
B||--0--------------1----|------------0--------|-------------------|
G||-------0--------------|--0------------------|--2/4--------------|
D||------------0---------|-------0-------------|-------------------|
A||----------------------|---------------------|-------------------|
E||--3-------------------|---------------------|-------------------|


                                                                    
----------------------|---------------------|----------------------|
--0--------------1----|------------3--------|--3--------------1----|
-------0--------------|--0------------------|-------0--------------|
------------0---------|-------0-------------|------------0---------|
----------------------|---------------------|--3-------------------|
--3-------------------|---------------------|----------------------|


                                                                     
----------------------|----------------------|----------------------|
------------0----1----|--0--------------1----|------------3---------|
--0-------------------|-------0--------------|--0-------------------|
-------0--------------|------------0---------|-------0---------0----|
----------------------|----------------------|----------------------|
----------------------|--0-------------------|----------------------|


                                                                  
--3----------------|----------------------|----------------------|
--3----------------|----------------------|--0--------------1----|
-------------------|--4/---2----0----2----|-------0--------------|
-------------------|----------------------|------------0---------|
--3----------------|----------------------|----------------------|
-------------------|----------------------|--3-------------------|


                                                                     
----------------------|----------------------|----------------------|
------------3---------|--3--------------1----|------------3/---5----|
--0-------------------|-------0--------------|--0-------------------|
-------0---------0----|------------0---------|-------0--------------|
----------------------|--3-------------------|------------3----5----|
----------------------|----------------------|----------------------|


                                                                   
-----------------3----|------------3/---5----|--3----------------||
--3-------------------|--3---------3----5----|--3----------------||
-------0--------------|-------0--------------|-------------------||
------------0---------|----------------------|-------------------||
--3-------------------|------------3----5----|--3----------------||
----------------------|----------------------|-------------------||

 
G
quantas vezes me sinto sozinho
D
procurando sem saber o que
Em
me perdendo pelo caminho
D        C    
por favor, onde anda você
G
quantas vezes me vejo no espelho
D
e não sei mais responder quem sou
Em
fico correndo atrás do tempo
D           C            G C Em C C/B C C/B
que um dia o medo me roubou


G
sinto sua falta, agora entendo 
D
peço segure firme a minha mão
Em
se de você estou distante
D               C
ao meu redor só vejo escuridão
G
uma voz rompe o silêncio 
D
que havia dentro do meu coração
Em
vem transformando o sentimento
D            C            G C Em C C/B C C/B
me mostrando qual a direção

G
e você me aceita de volta
G/C
e me diz q nada mais importa
Em            C               G    C        D 
eu só quero estar denovo com você, estar com você

e você me aceita de volta
e me diz que nada mais importa
eu só quero estar denovo com você, estar com você

e você me aceita de volta
e me diz que nada mais importa
eu só quero estar de novo com você, estar com você


Enviada por Sem inscrição
Nº de acordes: 6

Facebook