Scorpions

Rock You Like Hurricane

Scorpions

2.948 exibições
Intro: 
riff1
    E5          G5	 A5       C5  D5
|--------------------------------------------|
|--------------------------------------------|	
|---9--9--9-----------------------5---7--7--:|	(toque isso 3 vezes)
|---9--9--9-----5--5-----7--7-----5---7--7---|
|---7--7--7-----5--5-----7--7-----3---5--5---|
|---------------3--3-----5--5----------------|

    E5          G5       A5       D5
|--------------------------------------
|--------------------------------------		(depois siga isso)
|---9--9--9--------------2--2------7---
|---9--9--9-----5--5-----2--2------7---
|---7--7--7-----5--5-----0--0------5---
|---------------3--3-------------------

Riff2:                    (c/ alavanca)
e|----------------|-----5~~~~~~~~~~~~~~-|
B|-------------5--|---------------------|
G|---------7------|---------------------|
D|-----7----------|---------------------|
A|----------------|---------------------|
E|----------------|---------------------|

Riff3:
e|------|-----------------------|------------------|----------------------|
B|------|-----------------------|------------------|----------------------|
G|------|---------9--9--9-------|--------9--7------|--------9--9--9-------|
D|------|---------9--9--9-------|--------9--7------|--------9--9--9-------|
A|--3-3-|-3--3----7--7--7---3-3-|-3--3---7--5--3-3-|-3--3---7--7--7---3-3-|
E|------|-----------------------|------------------|----------------------|

e|-----------------------|-------------------|
B|-----------------------|-------------------|
G|---------7--7--7-------|--------7----------|
D|---------7--7--7-------|--------7----------|
A|--3--3---5--5--5---3-3-|-3--3---5----------|
E|-----------------------|-------------------|

Riff4:

e|--12-----12~~~~~~----|--------------------|
B|--15-----15~~~~~~----|--------------------|
G|---------------------|---------5---7--7---|
D|---------------------|--7--7---5---7--7---|
A|---------------------|--7--7---3---5--5---|
E|---------------------|--5--5--------------|


Versos:
(riff1)
It's early morning
The sun comes out
Last night was shaking
(riff2)
And pretty loud
My cat is purring
And scratches my skin
So what is wrong
With another sin
(riff3)
The bitch is hungry
She needs to tell
So give her inches
And feed her well
More days to come
New places to go
I've got to leave
It's time for a show

(riff1)
Here I am, rock you like a hurricane
Here I am, rock you like a hurricane

e|-----------------------|-12---------12------12--|-------12--12---|
B|----------15~~~~~~~~~~-|-15~~~~---------15------|---15-----------|
G|-----------------------|------------------------|----------------|
D|-----------------------|------------------------|----------------|
A|-----------------------|------------------------|----------------|
E|-----------------------|------------------------|----------------|

e|-------------------------------|
B|-------------------------------|
G|----------------7--------------|
D|----------------7--------------|
A|--3---3---3-----5--------------|
E|-------------------------------|

(riff1)
My body is burning
It starts to shout
Desire is coming
(riff2)
It breaks out loud
Lust is in cages
Till storm breaks loose
Just have to make it
With someone I choose
(riff3)
The night is calling
I have to go
The wolf is hungry
He runs the show
He's licking his lips
He's ready to win
On the hunt tonight
For love at first sting

(riff1)
Here I am, rock you like a hurricane
Here I am, rock you like a hurricane
Here I am, rock you like a hurricane
Here I am, rock you like a hurricane
Rock you like a hurricane...


Solo:(Riff1 8x)

e|----------------------------------------------------|-------------------------|
B|-12h15p12h15p12h15p12--17p12--17p15p12--17p15p12h15-|-------------------------|
G|----------------------------------------------------|-X-----------------------|
D|----------------------------------------------------|-X-----------12-12-14-14-|
A|----------------------------------------------------|-------14-14-------------|
E|----------------------------------------------------|-------------------------|

e|-------------------------------------12-12-15-15-|-17--17-----------------------|
B|-------------12-12-------12-12-15-15-------------|---------15--15-12--12--------|
G|-12-12-14-14-------14-14-------------------------|------------------14--14-12---|
D|-------------------------------------------------|---------------------------14-|
A|-------------------------------------------------|------------------------------|
E|-------------------------------------------------|------------------------------|

e|----------------------------------|---------------------------|
B|-14-14-------14-14-------14-12----|---------------------------|
G|-14-14-12----14-14-12----14-12-12-|-----0---2---4----4~~~~~~--|
D|----------14----------14----------|-14----2---2---2-----------|
A|----------------------------------|---------------------------|
E|----------------------------------|---------------------------|

e|-----------------------------------------------|------10h12p10-----
B|------3h5p3-----5h8p5-----8h10p8------12h15p12-|-12----------------
G|--4---------7---------9----------14------------|-------------------
D|-----------------------------------------------|-------------------
A|-----------------------------------------------|-------------------
E|-----------------------------------------------|-------------------

e|------12h15p12------15h17p15------19h22p19-|-------22---------------|
B|-15------------17------------22------------|--22------22~~~~----22--|
G|-------------------------------------------|------------------------|
D|-------------------------------------------|------------------------|
A|-------------------------------------------|------------------------|
E|-------------------------------------------|------------------------|

e|----------------------------------------|-------22--22~~~~~---|
B|-22-------------------------------20-22-|-22~~----------------|
G|-------------------------19-20-21-------|---------------------|
D|----------------19-20-21----------------|---------------------|
A|---------19-22--------------------------|---------------------|
E|----------------------------------------|---------------------|


e|--15/17---------------17----------17-19-20-22-|-22---22---22--22--22--19-|
B|--------------15---------17-19-20-------------|--------------------------|
G|--12/14---14-------14-------------------------|--------------------------|
D|----------------------------------------------|--------------------------|
A|----------------------------------------------|--------------------------|
E|----------------------------------------------|--------------------------|


e|-22-20-19----20-19-------19h20p19--------------------|
B|----------22-------22-20----------22-20--------------|
G|----------------------------------------14-16-14-----|
D|-------------------------------------------------17--|
A|-----------------------------------------------------|
E|-----------------------------------------------------|

It's early morning
The sun comes out
Last night was shaking
And pretty loud
My cat is purring
It scratches my skin
So what is wrong
(riff3)
With another sin
The night is calling
I have to go
The wolf is hungry
He runs to show
He's licking his lips
He's ready to win
On the hunt tonight
For love at first sting

(riff1)
Here I am, rock you like a hurricane
Here I am, rock you like a hurricane
Here I am, rock you like a hurricane
Here I am, rock you like a hurricane
Here I am
(riff4)
O REFRÃO é igual a introdução


Enviada por diodarts
Nº de acordes: 6

Facebook