System Of A Down

Chop Suey

System Of A Down

4.963 exibições
Versão 1
-======-

(Atenção) esta música tem três efeitos e os efeitos estão no cifra 
club, na sessão patches de
pedaleira zoom 505 II o primeiro efeito  é o efeito (limpo), o 
segundo é o efeito (pesado) e o 
terceiro é o efeito (distorção do final).


A afinação desta musica é em Dó maior (C,G,C,F,A,D)

Afinação:
 corda D
 corda A
 corda F
 corda C
 corda G
 corda C

Intro: 
D|-------------------|------------------------|
A|-------------------|------------------------|
F|5--5-5-5-5--5-5-5-5|5/7--7--7-7-7-7--7-7-7-7|
C|7--7-7-7-7--7-7-7-7|7/9--9--9-9-9-9--9-9-9-9|
G|0--0-0-0-0--0-0-0-0|0-0--0--0-0-0-0--0-0-0-0|
C|-------------------|------------------------|

D|-------------------|---------------------|
A|-------------------|---------------------|
F|4--4-4-4-4--4-4-4-4|4/2--2-2-2-2--2-2-2-2|
C|5--5-5-5-5--5-5-5-5|5/3--3-3-3-3--3-3-3-3|
G|0--0-0-0-0--0-0-0-0|0-0--0-0-0-0--0-0-0-0|
C|-------------------|---------------------|

Riff A
D|-----------|-----------|-----------|-----------|
A|-----------|-----------|-----------|-----------|
F|5---5---5--|7---7---7--|4---4---4--|2---2---2--|
C|--7---7---7|--9---9---9|--5---5---5|--3---3---3|
G|-----------|-----------|-----------|-----------|
C|-----------|-----------|-----------|-----------|

Riff B
D|-8-|10-|7-|12-|12-|13-|10-|13-|
A|10-|12-|8-|13-|13-|15-|12-|15-|
F|---|---|--|---|---|---|---|---|
C|---|---|--|---|---|---|---|---|
G|---|---|--|---|---|---|---|---|
C|---|---|--|---|---|---|---|---|

Riff C
D|-----|-----|------|-------|
A|-----|-----|------|-------|
F|-----|-----|------|-------|
C|7h8*-|6h7*-|9h10*-|11h12*-|
G|7h8*-|6h7*-|9h10*-|11h12*-|  
C|7h8*-|6h7*-|9h10*-|11h12*-|

Riff D
D|---|---|---|----|
A|---|---|---|----|
F|---|---|---|----|
C|---|---|---|----|
G|---|---|---|----|
C|7*-|6*-|9*-|12*-|

Riff E
D|--------------------|---------------------|
A|--------------------|---------------------|
F|--------------------|---------------------|
C|7h8--7h8-7h8-7h8-7h8|-6h7--6h7-6h7-6h7-6h7|
G|7h8--7h8-7h8-7h8-7h8|-6h7--6h7-6h7-6h7-6h7|
C|7h8--7h8-7h8-7h8-7h8|-6h7--6h7-6h7-6h7-6h7|

Riff F
D|-8*-|10*-|7*-|12*-|8*-|10*-|7*-|5*-|
A|10*-|12*-|8*-|13*-|10*-|12*-|8*-|6*-|
F|----|----|--------|----|----|---|---|
C|----|----|--------|----|----|---|---|
G|----|----|--------|----|----|---|---|
C|----|----|--------|----|----|---|---|

Riff G
D|---------------|
A|---------------|
F|---------------|
C|7-7-7-7-7-7-7-7|
G|7-7-7-7-7-7-7-7|
C|7-7-7-7-7-7-7-7|

Riff H
D|--------------------|
A|--------------------|
F|--------------------|
C|7---|3---|10---|3---|
G|7---|3---|10---|3---|
C|7---|3---|10---|3---|

Sequência de riff's
Introdução 1 x (uma vez)
Riff A 1 x (uma vez)
Riff B 1 x (uma vez)
Riff C 2 x (duas vezes)
Riff D 2 x (duas vezes)

Riff E 4 x (quatro vezes)
Riff A 2x (duas vezes)
Riff C 2 x (duas vezes)
Riff G 1 x (uma vez)

Riff E 4 x (quatro vezes)
Riff A 2 x (duas vezes)
Riff F 1 x ( uma vez)
Riff C 2 x (duas vezes)
Riff C 2 x (duas vezes) bem rápido 
Riff D 2 x (duas vezes)
Riff H 8 x (oito vezes)

Quanto mais vocês treinarem, mais vocês entenderam e tocaram melhor 
esta música.
Se vocês quiserem mandem suas sugestões e críticas para o meu e-
mail: hommer86@hotmail.com.



_______________________________________________________
Contribuição: Marcelo do Nascimento Marques da Silva(hommer@hotmail.com)




Versão 2
-======-

Usar: afinção Standard (EADgbe) na Distorção usar afinação Um Tom Abaixo

E-------------------------------------------------
B-------------------------------------------------
G-55555555---55555555--44444444---22222222--------
D-77777777---99999999--55555555---33333333--------
A-00000000---00000000--00000000---00000000--------
E-------------------------------------------------


d---------------------------------------------------------
A---------------------------------------------------------
F---5---5---5-----7---7---7----4---4---4----2---2---2-----
C-----7---7---7-----9---9---9----5---5---5----3---3---3---
G---------------------------------------------------------
D---------------------------------------------------------

d-8--8--8--8--10-10-10-10-7-7-7-7-12-12-12-12-
A-10-10-10-10-12-12-12-12-8-8-8-8-13-13-13-13-
F---------------------------------------------
C---------------------------------------------
G---------------------------------------------
D---------------------------------------------

d-8--8--8--8--10-10-10-10-7-7-7-7-13-13-13-13-
A-10-10-10-10-12-12-12-12-8-8-8-8-15-15-15-15-
F---------------------------------------------
C---------------------------------------------
G---------------------------------------------
D---------------------------------------------
[Intro]
Riff1
Riff1
Riff1 
Riff1 
Riff2
Riff2
Riff3
Riff3
Riff2
d----------------------------------------------------------------------------
A----------------------------------------------------------------------------
F----------------------------------------------------------------------------
C----------------------------------------------------------------------------
G-787878787-676767676-9(10)9(10)9(10)9(10)9-(12)(13)(12)(13)(12)(13)(12)(13)-
D-565656565-454545454-7-8--7-8--7-8--7--8-7-(10)(11)(10)(11)(10)(11)(10)(11)-
  G5        F#5       A5                     C5   
Riff3 (Distorção Rápida)
d-------------------------------------------------------------
A-------------------------------------------------------------
F-------------------------------------------------------------
C-77777777-66666666-99999999-(12)(12)(12)(12)(12)(12)(12)(12)-
G-------------------------------------------------------------
D-55555555-44444444-77777777-(10)(10)(10)(10)(10)(10)(10)(10)-
  G5       F#5      A5        C5
Riff4 (Verso)
d-----------------------------------
A-----------------------------------
F-----------------------------------
C--7!7!--77777777-76---66666666-67--
G--7!7!--77777777-76---66666666-67--
D--5!5!--55555555-54---44444444-45--
[Verse1] (Riff4)
A5!  A5!         A5                            A5!  G#5!
Wake up          Grab a brush and put a little make-up
       (wake up)
G#5                             G#5 A5
Hide the scars to fade away the shakeup
                                       (hide to fade away the shakeup)
A5                                A5! G#5!
Why'd you leave the keys upon the table?
G#5                        G#5 A5
Here you go create another fable - You wanted to! 
A5                            A5! G#5!
Grab a brush and put a little makeup - You wanted to!
G#5                             G#5 A5
Hide the scars to fade away the shakeup - You wanted to!
A5                                A5! G#5!
Why'd you leave the keys upon the table? - You wanted to!
Lead3 (Chorus)
d--------------------------------------------------------------------
A--------------------------------------------------------------------
F-5-----5---------7------7------------4-----4----------2----2--------
C---7-----7---7-----9------9----9-------5-----5---5------3----3---3--
G-----------7----------------10-----------------7---------------5----
D--------------------------------------------------------------------
[Chorus] (Lead3, Lead2a)
                  Am       F        C       F
I don't think you trust__  in___,   my__,   self righteous
   Am      F      C             F
suicide    I__,   cry__,   when angels deserve to
Riff2      Riff2          A5
DIE!!!!!!!!!!!!!!!!       Whraaaaaaaaaaaaaaaghhhhh!
[Repetir Verso1] 

                  Am       F        C       F
I don't think you trust__  in___,   my__,   self righteous
   Am      F      C             F
suicide    I__,   cry__,   when angels deserve to
Am           F           C             F
die_________ in______,   my___,   self righteous
   Am      F            C             F (hold)
suicide    I__I__I__,   cry__,   when angels deserve to die______
Riff2
Riff2
A5        G#5     B5       D5     (Riff2)
Father,           father 
     
A5        G#5     B5       D5     (Riff2)
Father,           father 

A5          G#5         B5        D5     (Riff3)
Father into your hands, I commend my spirit
A5          G#5         B5           D5     (Riff3)
Father into your hands, why__ have__ you__
   Am        F               C         F 
forsaken me  In your eyes forsaken me  In your thoughts
   Am        F                C          F 
forsaken me  In your heart forSAKEN____, ME___E__ oh
 Am         F         C           F 
 Trus in__ my self righteous
(Trus_in__ my self righteous)
    Am             F             C                F 
 suicide   I  cry  when angels deserve to
(suicde   I,  cry   when angels deserve to
 Am           F             C                F 
 die__ie__ie_ in______,   my___,   self righteous
(die_________ in______,   my___,   self righteous
    Am             F             C                F 
 suicide   why,  cry,   when angels deserve to
(suicide   why,  cry,   when angels deserve to
Am 
 die
(die


Enviada por Sem inscrição
Nº de acordes: 23

Facebook