U2

Kite

U2

1.143 exibições
Tom: E
Intro: E  A  (repeat)
lead gtr (w. slide):
------
-14\--
-14\--
------
------
------
VERSE:
E        A            E        A 
Something is about to give
              E      A                       E      A 
I can feel it coming  I think I know what it is
                  E   A                  E      A 
I'm not afraid to die  I'm not afraid to live
             E          A                          E   A 
And when I'm flat on my back I hope to feel like I did
(enter 2 slide guitar tracks):
-------------------------
--4/5--4/5--4/5\4\2------
--4/6--4/6--4/6\4\2------
-------------------------
-------------------------
-------------------------
(repeat)
    A
And hardness It sets in
                 C#m                     A
You need some protection the thinner the skin
E             A         C#m                      A
I want you to know that you don't need me anymore
E             A                   C#m
I want you to know You don't need anyone
               A
Or anything at all
CHORUS:
E                                         
Who's to say where the wind will take you
B                                        
Who's to say what it is will break you
A                                        
I don't know which way the wind will blow
E                                        
Who's to know when the time has come around
B                     A
Don't want to see you cry
                            E
I know that this is not goodbye
Lead guitar chords on above chorus:
  E   B   A
------0---7--------------
--9---7---5---------(0)--
--9---8---6-(8)-(6)------
--9---9---7--------------
--7-------0--------------
--0----------------------
(play with variations of these)

slide solo in second verse:
e-7/9--9---12\11--11\7--7\5--5-
b------------------------------
e-7/9--9---12\11--11\7--7\4--4-
b------------------------------
e-2/4--4\2--0--0--
b-----------------


Enviada por Sem inscrição
Nº de acordes: 4

Facebook