Intr:
   A               F#m
e|------------------------------|
B|-2--------2---------2-----2-2-|
G|-2--------2---------2-----2-2-| 2
D|----2-2------2-4----4-----4-4-| x
A|-0------0---------------------|
E|-----------------2----2-2-----|

 A             F#m   A             F#m
Fada, fada querida, Dona da minha vida
   E                      F#m    E                       F#m E (RIFF 2)
Você se foi, levou meu calor, você se foi, mas não me levou...

(RIFF 2)
  E
e|------------------|
B|------10----------|
G|-9h11-----9p7-----|
D|--------------9-7-|
A|------------------|
E|------------------|


 A              F#m   A                F#m (RIFF 3)
Lua, lua de encanto, ouça pra quem eu canto
  E                F#m (RIFF 4)     E                F#m  E  
Ela levou minha magia,          mas ela é minha alegria...

(RIFF 3)               (RIFF 4)
e|-/9-9-9--/12-12-12-| e|-----------|
B|-/9-9-9--/12-12-12-| B|-----------|
G|-------------------| G|-----------|
D|-------------------| D|-----4/6-4-|
A|-------------------| A|-2h4-------|
E|-------------------| E|-----------|


 D                    E             A                     F#m
Vejo uma luz, uma estrela brilhar, sinto um cheiro de perfume no ar
 D                     E                 D         E   A  (RIFF 5)
Vejo minha fada e sua vara de condão, tocando meu coração

(RIFF 5)
e|-9-9-9--7-7-7--5-5-5-|
B|-x-x-x--x-x-x--x-x-x-|
G|-9-9-9--7-7-7--6-6-6-|
D|---------------------|
A|---------------------|
E|---------------------|


 A                     F#m  
Madrugada de amor que não vai acabar
 A                         F#m
Se estou sonhando, não quero mais acordar
 D                         E         A   E (RIFF 6)
Minha história linda, meu conto de amor...

(RIFF 6)
e|-5-7-9~~-|
B|---------|
G|-6-7-9~~-|
D|---------|
A|---------|
E|---------|

A                             F#m
Algo aqui me diz que essa paixão não é em vão
A                       F#m
O meu sentimento é bem mais que uma emoção
D                      E          D    E   A
Eu espero o tempo que for, minha fada do amor

Solo:      A              F#m     A           F#m       D           E
e|-----5---5~~------5/7--7-/9-5~~--9-9-10-/12-12-10-9~~--17-17-17~~--16-16-16/-|
B|-5/7---7-----5/7-------------------------------------------------------------|
G|-----------------------------------------------------------------------------|
D|-----------------------------------------------------------------------------|
A|-----------------------------------------------------------------------------|
E|-----------------------------------------------------------------------------|

      D     E     A         E              D
e|----9-----7-----5--------------------------|
B|-------------------------------------------|
G|-/9----/7----/6-----6-7-7/9~~--------------|
D|---------------------------------7-6-------|
A|-------------------------------7-----7-7/9-|
E|-------------------------------------------|


 D                    E             A                     F#m
Vejo uma luz, uma estrela brilhar, sinto um cheiro de perfume no ar
 D                     E                 D         E   A  (RIFF 5)
Vejo minha fada e sua vara de condão, tocando meu coração

(RIFF 5)
e|-9-9-9--7-7-7--5-5-5-|
B|-x-x-x--x-x-x--x-x-x-|
G|-9-9-9--7-7-7--6-6-6-|
D|---------------------|
A|---------------------|
E|---------------------|

 A                     F#m  
Madrugada de amor que não vai acabar
 A                         F#m
Se estou sonhando, não quero mais acordar
 D                         E         A   E (RIFF 6)
Minha história linda, meu conto de amor...

(RIFF 6)
e|-5-7-9~~-|
B|---------|
G|-6-7-9~~-|
D|---------|
A|---------|
E|---------|

A                             F#m
Algo aqui me diz que essa paixão não é em vão
A                       F#m
O meu sentimento é bem mais que uma emoção
D                      E          D    E   A   E
Eu espero o tempo que for, minha fada do amor

 A                     F#m  
Madrugada de amor que não vai acabar
 A                         F#m
Se estou sonhando, não quero mais acordar
 D                         E         A   E
Minha história linda, meu conto de amor...

A                             F#m
Algo aqui me diz que essa paixão não é em vão
A                       F#m
O meu sentimento é bem mais que uma emoção
D                      E          D    E   A  (RIFF 7)
Eu espero o tempo que for, minha fada do amor

(RIFF 7)
e|-5-7-5-|
B|-------|
G|-6-7-6-|
D|-------|
A|-------|
E|-------|

F#m D                      E          D        E   A (RIFF 8)
    Eu espero o tempo que for, minha fada do amor...

(RIFF 8)
e|-5-4-----|
B|-5-5-5-5-|
G|-----6-6-|
D|-------7-|
A|-------0-|
E|---------|


Enviada por Sem inscrição
Nº de acordes: 4

Facebook