Victor e Leo

Na Linha Do Tempo

Victor e Leo

5.254 exibições
Capotraste 4ª casa

Tom: D

Intro: 2x

  D                                 
e---------2----------------2------------------------
B-----3--------3-------3-------3--------------------
G---2---2----2---2---2---2---2----------------------
D-0----------------0--------------------------------
A---------------------------------------------------
E---------------------------------------------------

  A
e---------0----------------0------------------------
B-----2-------2--------2-------2--------------------
G---2---2---2---2----2---2---2----------------------
D---------------------------------------------------
A-0----------------0--------------------------------
E---------------------------------------------------

  Bm                                 
e---------2----------------2------------------------
B-----3--------3-------3-------3--------------------
G---4---4----4---4---4---4---4----------------------
D---------------------------------------------------
A-2----------------2--------------------------------
E---------------------------------------------------

  G
e---------3----------------3------------------------
B------3-------3-------3-------3--------------------
G----0---0---0---0---0---0---0----------------------
D---------------------------------------------------
A---------------------------------------------------
E-3----------------3--------------------------------

Verso 1:
       D             A               Bm
Eu te dei o ouro do sol, a prata da lua
              G                         D
Te dei as estrelas pra desenhar o teu céu
              A                    Bm                     G
Na linha do tempo, o destino escreveu, com letras douradas
        D
Você e eu

Pré-Refrão:
                                  A             Bm
Há quanto tempo eu esperava encontrar alguém assim
                                       G           D
Que se encaixasse bem nos planos que um dia fiz pra mim
        E   G
Você e eu...

Refrão:
 A     D                                      A
Vou dizer, que nessas frases tem um pouco de nós dois
                              Bm
Que não deixamos o agora pra depois
                                    G       A        D
Quando te vejo eu me sinto tão completo por onde eu vou
                                    A
Que nesses traços vou tentando descrever
                                    Bm
Que mil palavras é tão pouco pra dizer
                                    G
Que o sentimento muda tudo, muda o mundo
     A     D
Isso é o amor.

Intro: (D A Bm G) 2x

Verso 2:
D              A                     Bm                 G
  Na linha do tempo, o destino escreveu, com letras douradas
       D
Você e eu

Pré-Refrão:
                                  A             Bm
Há quanto tempo eu esperava encontrar alguém assim
                                         G           D
Que se encaixasse bem nos planos que um dia fiz pra mim
        A   G
Você e eu...

Refrão:
 A     D                                          A
Vou dizer, que nessas frases tem um pouco de nós dois
                                Bm
Que não deixamos o agora pra depois
                                    G       A        D
Quando te vejo eu me sinto tão completo por onde eu vou
                                     A
Que nesses traços vou tentando descrever
                                    Bm
Que mil palavras é tão pouco pra dizer
                                       G
Que o sentimento muda tudo, muda o mundo
     A     D
Isso é o amor...
                                       A
Que nessas frases tem um pouco de nós dois
                                Bm
Que não deixamos o agora pra depois
                                    G       A        D
Quando te vejo eu me sinto tão completo por onde eu vou
                                    A
Que nesses traços vou tentando descrever
                                    Bm
Que mil palavras é tão pouco pra dizer
                                       G
Que o sentimento muda tudo, muda o mundo
     A     D
Isso é o amor.

Final:
(D A Bm G) 2x


Enviada por Sem inscrição
Nº de acordes: 5

Facebook