Waldir Azevedo

Brasileirinho (solo)

Waldir Azevedo

92.382 exibições
e/-9-9-9-9-9-0-5-9-0-5-9-0-5-9-0-5-9-0-5-8-0-5-8-0-5-8-0-5-8-0-5-9--- 
B/------------------------------------------------------------------- 
G/------------------------------------------------------------------- 
D/------------------------------------------------------------------- 
A/------------------------------------------------------------------- 
E/------------------------------------------------------------------- 
 
e/-9-8-7-6-5---0-1-2-0-1-2-0-1-2-0-1-2-0-2-3-0-2-3-0-2-3-0-2-3-0-1-2--- 
B/--------------------------------------------------------------------- 
G/--------------------------------------------------------------------- 
D/--------------------------------------------------------------------- 
A/--------------------------------------------------------------------- 
E/--------------------------------------------------------------------- 
 
e/-3-3-2-1-0---0-2-3-4-3-2-0--0-2-3-4-3-2-0--5-4-2-0--5-4-2-0--- 
B/-------------------------------------------------------------- 
G/-------------------------------------------------------------- 
D/-------------------------------------------------------------- 
A/-------------------------------------------------------------- 
E/-------------------------------------------------------------- 
 
e/-0-2-3-4-3-2-0--0-2-3-4-3-2-0--5-4-2-0--5-4-2-0- 
B/------------------------------------------------ 
G/------------------------------------------------ 
D/------------------------------------------------ 
A/------------------------------------------------ 
E/------------------------------------------------


Enviada por Sem inscrição
Nº de acordes: 0

Facebook