Zeca Baleiro

Proibida Pra Mim (Versão Tablatura)

Zeca Baleiro

5.140 exibições
Tom: G
Intro: (G F6/9 Em7 Eb G F6/9 Em7 Eb C(add9) G/B Am7 Dsus4)
  
    Riff1                                        
e||-------3------------3-----------3--------------3-----
b||-----3------------3---3-------3--------------4---4---
g||---0------------2-------2---0--------------3-------3-
d||----------0-2-3-----------2--------------5-----------
a||-----------------------------------3-5-6-------------
E||-3---------------------------------------------------

e-------3------------3-----------3--------------3---------------------||
b-----3------------3---3-------3--------------4---4-------------------||
g---0------------2-------2---0--------------3-------3-----------------||
d----------0-2-3-----------2--------------5---------------------------||
a-----------------------------------3-5-6--------------3-2-----3-2----||
E-3--------------------------------------------------------5-3-----5\-||

G(add9)          D          Em7
ela achou o meu cabelo engraçado
        C(add9)      G(add9)
proibida pra mim no way
              D        Em7
disse que não podia ficar
                  C(add9)    G(add9)
mas levou a sério o que eu falei
             D              Em7
eu vou fazer tudo que eu puder
                C(add9)        G(add9)
eu vou roubar essa mulher pra mim
                  D
posso te ligar a qualquer hora
Em7        C(add9) G/B   Am  Dsus4
mas eu nem sei o          seu nome
G(add9)          F(add9)       Em7
se não eu quem vai fazer você feliz?
                    Eb6/9            G(add9) D Em C(add9)
Se não eu quem vai fazer você feliz? guerra
G(add9)         D          Em7
Eu me flagrei pensando em você
                 C(add9)  G(add9)
em tudo que eu queria te dizer
                D           Em7
em uma noite especialmente boa
                        C(add9)      G(add9)
não há nada mais que a gente possa fazer
                    D        Em7
eu vou fazer de tudo que eu puder
                     C(add9)   G(add9)
eu vou roubar essa mulher pra mim
                  D
posso te ligar a qualquer hora
Em7            C(add9) G/B    Am  Dsus4
mas eu nem sei o          seu nome
G(add9)          F(add9)        Em
se não eu quem vai fazer você feliz?
                    Eb6/9           Gadd9) D Em C(add9)
Se não eu quem vai fazer você feliz? guerra

Por: Everton Rebelo Figueiredo (evertonf@brturbo.com)


Enviada por Sem inscrição
Nº de acordes: 15

Facebook