Caetano Veloso

O Leãozinho

Caetano Veloso

690 exibições
  • Violão
  • Guitarra
  • Teclado
  • Cavaquinho
  • Contra-baixo
  • Bateria
  • Gaita
  • Guitar Pro
Tom-C

Introdução- C 

C                   G
Gosto muito de te ver leãozinho
Am              Em
Caminhando sob o sol
F                    Bb         C     
Gosto muito de te ver leãozinho
C                     G
Para desentristecer leãozinho
Am                     Em
O meu  coração tão só
F                     Bb                 C
Basta eu encontrar você no caminho

Refrão:
Am              Am7M             Am7    Am6
Um filhote de leão raio da manhã
F7M                      Em        Dm   G7
Arrastando o meu olhar como um imã
Am                     Am7M        Am7  Am6
O meu coração é o sol pai de toda cor
F7M                     Em      Dm      G7
Quando ele lhe doura a pele ao léu

C                     G
Gosto  de te ver ao sol leãozinho
Am                       Em
De te ver entrar no mar
F                  Bb   C
Tua pele tua luz tua juba
C                  G
Gosto de ficar ao sol leãozinho
Am                    Em
De molhar minha juba
F               Bb              C
De estar perto de você e entrar numa

Tablatura:

Verso

       C                      G		         Am	          Em                  F                 Bb               C
G|--------------------------------------------------------------------------------------------------------------------------|
D|------2--5--2-5-------------------------------2-------------------------------------------------0--3--0----2-5-3-5--|
A|---3--------------------2--5--2-5-----0---3-----3--------------2-----------0--3--0--------1------------3-----------|
E|----------------------3------------------------------------0---3-----3-----1--------------------------------------------|


Refrão

        Am            Am7M       Am7                           Am6            F7M           Em       Dm          G7
G|---\14-14-14--13-13-13---12-12-12--12h14-12--11-11-11----10-10-10---9-9-9---7-7-7----12-12-12-12---|
D|-----------------------------------------------------------------------------------------------------------------------------|
A|--\12-12-12---12-12-12---12-12-12---------------12-12-12-----8---8--8----7-7-7---5-5-5-----10-10-10-10--|
E|-----------------------------------------------------------------------------------------------------------------------------|

        Am            Am7M       Am7                           Am6            F7M           Em       Dm          G7
G|---\14-14-14--13-13-13---12-12-12--12h14-12--11-11-11----10-10-10---9-9-9---7-7-7----------------9-12/0--|
D|----------------------------------------------------------------------------------------------------------------9-12----------|
A|--\12-12-12---12-12-12---12-12-12---------------12-12-12-----8---8--8----7-7-7---5-5-5-------10---------------|
E|--------------------------------------------------------------------------------------------------------------------------------|

Mila, te amo!!!


Enviada por Sem inscrição
Nº de acordes:

Facebook