Charlie Brown Jr.

Como Tudo Deve Ser

Charlie Brown Jr.

6.357 exibições
Versão 1
-======-

(Baixo de 4 cordas)

Solo Inicial: (Baixo)

 G|--------13-11h13--18-16------------|---11-9-11--16-14-13h14-----|  
 D|-----11------------------18-16-14--|----------------------------|   
 A|--12-------------------------------|----------------------------|
 E|------------------14---------------|-9----------13--------------|

 Refrão:

 G|-----------14-14-14-14-14-14-14-14--|
 D|--11-11-11--------------------------| 
 A|------------------------------------|
 E|------------------------------------|

 No refrão há algumas improvisadas, por isso seja ciativo e 
 improvise você mesmo.
  
 Finalização:

 G|------13------|
 D|--11----------|
 A|----------12--|
 E|--------------|

_______________________________________________________
Contribuição: Bruno Brain Baruchi(bruno_baruchi@yahoo.com.br)





Versão 2
-======-

(Baixo de 5 cordas)

Se preferirem usem Pestana em algumas partes ...

Introdução e verso

G -------------------|-18----16----------|-------------16-|-14-13h14-13-
D -------18----16-18-|----------18-16-14-|----16-14-16----|-------------
A ----16----16-------|-16----------------|----------------|-------------
E -17----------------|----------14-------|----------------|-12--12------
B -------------------|-------------------|-14*----14------|-------------

* se o seu baixo for de 4 cordas utilize a corda E na casa 9.


Refrão 
G -------------------------------------------------------------------|
D -6-6-6-6-9-9-9-9--18-18-18-18-14-14-14-14--18-18-18-18-14-14-14-14-|
A -------------------------------------------------------------------|
E ---4------7--------16-16-16-16-12-0-12-12--16--16--------0---0-----|
B -------------------------------------------------------------------|


Final

G --13---------------|
D ------11-----------|
A -------------------|
E ----------14-------|
B -------------------|


Enviada por Sem inscrição
Nº de acordes:

Facebook