Intro
G----------------------------------------------------|
D----------------------------------------------------|
A-6-1-3----------------------------------------------|
E----------------------------------------------------|
B----------------------------------------------------|

Verse
G----------------------------------------------------|
D----------------------------------------------------|
A-3333333333-666666666-111111111---------------------| x 2
E--------------------------------444444444-----------|
B----------------------------------------------------|

Chorus
G----------------------------------------------------|
D----------------------------------------------------|
A-111--333--666--1111-9-6----------------------------|
E---------------(Elevens)----------------------------|
B----------------------------------------------------|

G----------------------------------------------------|
D----------------------------------------------------|
A-111--333--666--/111111-(Elevens)-------------------|
E----------------------------------------------------|
B----------------------------------------------------|

Repeat verse X2

Chorus 2 
G----------------------------------------------------|
D----------------------------------------------------|
A-111--333--666--1111-9-6----------------------------|
E--------------(Elevens)-----------------------------|
B----------------------------------------------------|

G----------------------------------------------------|
D-------------------------------(Thirteen’s)---------|
A-111--333--666------------------/13131313-----------|
E---------------4444444-66666666---------------------|
B----------------------------------------------------|

Bridge
G----------------------------------------------------|
D----------------------------------------------------|
A-33333----------------------------------------------|X 2
E----------------------------------------------------|
B------44444-66666-----------------------------------|

Outro (I used to mean something to you...)
G----------------------------------------------------|
D----------------------------------------------------|
A-33333----------------------------------------------|
E----------------------------------------------------|
B------44444-66666-99999-----------------------------|

G----------------------------------------------------|
D----------------------------------------------------|
A-33333------------------------3(Hold)---------------|
E----------------------------------------------------|
B-------44444--6666666666----------------------------|
(Play and hold the C on the 3rd fret, only on the last time)


Enviada por Sem inscrição
Nº de acordes:

Facebook