Legião Urbana

Angra Dos Reis

Legião Urbana

623 exibições
Intro: (essa parte tb é usada em riffs)

G|--------------------------------|
D|--------------------------------|
A|--3--3--3-3-3-3-----------------|
E|----------------1-3--3--3--3----|



Se fosse só sentir saudade...
G|--------------------------------------------------------------------------------------------------------------------------|
D|--------------------------------------------------------------------------------------------------------------------------|
A|--3--3-3-------------------------------------3--3-3-----------------------------------------------------------------------|
E|----------0--0-0---5--5-5---7--7-7--7--7-7------------0--0-0---5--5-5---7--7-7--7--7-7---5--5-5--5--5-5---7--7-7--7--7-7--|



Vai ver que nao eh nada disso..
|-----------------------------------------------------------------------------------------------------------------------------------------|
|-----------------------------------------------------------------------------------------------------------------------------------------|
|-----------------------------------------------------------------------------------------------------------------------------------------|
|-7--7-7--7--7-7---5--5-5--5--5-5---7--7-7--7--7-7---5--5-5--5--5-5---7--7-7--7--7-7---5--5-5--5--5-5---7--7-7--7--7-7---5--5-5--5--5-5---|


Enviada por Sem inscrição
Nº de acordes:

Facebook