Legião Urbana

Por Enquanto

Legião Urbana

935 exibições
Introdução:
     D                                   D7+               G             F#m           G              Em             G        
G|----------------------------------------------| ---------------------------------------------------------------|
D|--------------------7----7--------7------7--|----------------------------------------------------------------|
A|(5-5)---(5-5)-5-5---5-----5-5-----5------|-----5----5------4----4------5----5------2---2------5----5-|
E|----------------------------------------------|3-3----3----2-2---2----3-3----3----0-0---0----3-3---3----|
    A7   A#º          Bm              F#m          G                  D                Bm               F#m                                                                                                                                                      
G|---------------------------------------------------------------------------------------------------------------|
D|------------------------4---4-------------------------------------7-----7-------4-----4---------------------|
A|----7------8-----2-2----2-----------4---4-------5----5---5-5----5-----2-2-----2------------4-----4-----|
E|5-----6-------------------------2-2----2----3-3----3-------------------------------------2-2------2-------|
       G                F#m            G              Em                A7/4          A7          
G|------------------------------------------------------------------------------------------|
D|------------------------------------------------------------------------------------------|
A|--------5----5-------4----4-------5----5-------2----2--------7---7-------7-----7----|
E| --3-3-----3----2-2----2----3-3-----3----0-0----0-----5-5---5-----5-5-----5------|

Verso:  
Mudaram  as Estações... 
    D                                     D7+               G             F#m           G              Em             G        
G|----------------------------------------------| ---------------------------------------------------------------|
D|--------------------7----7--------7------7--|----------------------------------------------------------------|
A|(5-5)---(5-5)-5-5---5-----5-5-----5------|-----5----5------4----4------5----5------2---2------5----5-|
E|----------------------------------------------|3-3----3----2-2---2----3-3----3----0-0---0----3-3---3----|
    A7   A#º          Bm              F#m          G                  D                Bm               F#m                                                                                                                                                      
G|---------------------------------------------------------------------------------------------------------------|
D|------------------------4---4-------------------------------------7-----7-------4-----4---------------------|
A|----7------8-----2-2----2-----------4---4-------5----5---5-5----5-----2-2-----2------------4-----4-----|
E|5-----6-------------------------2-2----2----3-3----3-------------------------------------2-2------2-------|
                                                                                                Sempre acaba. 
       G                F#m            G              Em                A7/4          A7          
G|------------------------------------------------------------------------------------------|
D|------------------------------------------------------------------------------------------|
A|--------5----5-------4----4-------5----5-------2----2--------7---7-------7-----7----|
E| --3-3-----3----2-2----2----3-3-----3----0-0----0-----5-5---5-----5-5-----5------|

Mais nada vai...                                                                               Alguém...
     D                  A/C#              G                   F#m             G
G|--------------------------------------------------------------------------------|
D|-------7-----7-------6------6-------------------------------------------------|
A|--5-5----5-----4-4-----4------------5-------5------4-----4-------5-----5--|
E|----------------------------------3-3-----3------2-2----2-----3-3-----3-----|

Só penso em você...                                                                                                                 Está
    Em                 G                 A7    A#º      Bm              F#m            G                     D
G|------------------------------------------------------------------------------------------------------------------|
D|-----------------------------------------------------4-----4------------------------------------------7----7----|
A|-------2----2--------5----5------7------8---2-2-----2----------4---4----------5-----5----5-5------5-------|
E|--0-0-----0-----3-3----3-----5-----6----------------------2-2----2------3-3-----3---------------------------|

E nem desistir, nem tentar...
     Bm                   F#m             G                                 A7                  D   
G|------------------------------------------------------------------------------------------------------------------|
D|--------4-----4---------------------------------------------------------------------7-----7-------7----7-------|
A|--2-2-----2------------4------4------5----5-------5----5------7------7---5-5-----5-----5-5----5-----------|
E|--------------------2-2-----2-----3-3---3----3-3----3-----5-5----5-------------------------------------------|
 
Solo: repete a tem o fim da música 
    G                D/F#          B                A7                G               D/F#       B                A7   
G|----------------------------------------------------------------------------------------------------------------|
D|----------------------------------------------------------------------------------------------------------------|
A|----------------------------2-2-2-2-2---0-0-0-0-0-1--------------------------2-2-2-2-2---0-0-0-0-0-1-|
E|--3-3-3-3-3---2-2-2-2-2------------------------------3-3-3-3-3--2-2-2-2-2-----------------------------|
 
 


Enviada por Sem inscrição
Nº de acordes:

Facebook