Nirvana

Dive

Nirvana

339 exibições
Intro/Verse
G-----------------------|
D-----------------2-2-2-|
A-----------------------|
E-2-0-2-2-0-2-0-0-------|

Chorus
G---------------------|-----------------------|
D---------------------|-----------------2-2-2-|
A-2---2-4---4---------|-----------------------|
E-------------3---3-0-|-2-0-2-2-0-2-0-0-------|



_______________________________________________________
Contribuição: Felipe Furlan da Rosa(fynonlipy@mtv.com.br)


Enviada por Sem inscrição
Nº de acordes:

Facebook