Restart

Amanhecer No Teu Olhar

Restart

1.325 exibições
(intro)

É incrível como você me deixou assim...
E|-4~-----4~------------|
A|------------------2~--|
D|----------------------|
G|----------------------|

E|-------------------------------------------------------------------------------------------|
A|-222222222222-444444444--------------------------------------------------2222-444444-222~--|
D|------------------------111111-2222-1111-444444-1111-2222222-1111-222222-------------------|
G|-------------------------------------------------------------------------------------------|

Já é fim de noite e eu aqui a te esperar...
E|---------------------------------------------444444444444444444444-22222222222222222222222222--|
A|-222222222222222222222-111111111111111111111---------------------------------------------------|
D|-----------------------------------------------------------------------------------------------|
G|-----------------------------------------------------------------------------------------------|

(refrão)
E|----------------------------222-222222------------------------------|
A|--------------------222-222----------------------------------4~-7~--| 
D|-222222222222222222--------------------222222222222222222222--------|
G|--------------------------------------------------------------------|

E|-------------------------------------------------------------------------------------------|
A|-222222222222-444444444--------------------------------------------------2222-444444-222~--|
D|------------------------111111-2222-1111-444444-1111-2222222-1111-222222-------------------|
G|-------------------------------------------------------------------------------------------|

Noites acordadas sem conseguir te esquecer...
E|-------2~-4~--|
A|-2~-1~--------|
D|--------------|
G|--------------|

Já amanheceu o sol me lembra teu olhar...
E|-----------------------------22-222-22-222-44-444-44-444--|
A|-22-222-22-222-11-111-11-111------------------------------|
D|----------------------------------------------------------|
G|----------------------------------------------------------|

(refrão)
E|----------------------------222-222222------------------------------|
A|--------------------222-222----------------------------------4~-7~--| 
D|-222222222222222222--------------------222222222222222222222--------|
G|--------------------------------------------------------------------|

Como você sempre quis, como você sempre quis...
E|------------------------|            E|--------------|
A|2222222-44444444-77777--|  (3x)      A|-2~--4~--7~---|
D|------------------------|            D|--------------|
G|------------------------|            G|--------------|

E|----------------------------------------------|
A|-2~----4~---7~---2~---4~---2~---4~---7~---2~--|
D|----------------------------------------------|
G|----------------------------------------------|


Enviada por marcelo12
Nº de acordes:

Facebook