Skank

Acima Do Sol

Skank

635 exibições
Intro:
G---------------------------------
D---------------------------------
A---------------------------------
E--0-3-5---0-5-3---0-3-5---0-5-3--

Verso:
G----------------------------------------------------
D----------------------------------------------------
A------5-7-5-7-----5-7-5-7------3-5-3-5-----3-5------
E--5-5---------5-5----------3-3---------3-3-----0-3--

G---------------------------------------------------
D---------------------------------------------------
A---------------------------------------------------
E--5-5-5-5-5-5-5-5-5-5-5-5-5-5-5-5-3-3-3-3-3-3-3-3--
   Uhuhuhuhuhuhuhuhuh!




Enviada por Sem inscrição
Nº de acordes:

Facebook