AC/DC

Highway To Hell

AC/DC

1.223 exibições
Riff 1 x2 (bateria entra na 2ª vez)
Gb|----------------------------------------||
Db|----------------------------------------||
Ab|-0-0-0------------------------------0-0-||
Eb|----------2-2-3----2-2-3--2-2-3--2------||

Verse 1 
Gb|----------------------------------------|X3
Db|----------------------------------------|
Ab|-0-0-0------------------------------0-0-|
Eb|----------2-2-3----2-2-3--2-2-3--2------|
  |
Gb|-----------------------------------------------------||
Db|-----------------------------------------------------||
Ab|-0-0-0-----------------------------------------------||
Eb|----------2-2-3----2-2-3--2-2-3--2--0--0-0-0-0-0-0-0-||
                                         |cresc.
Chorus                   X3|
Gb|------------------------|------------------------||
Db|------------------------|------------------------||
Ab|-0--0--0--0--5--5-------|-0--0--0--0--5-r--------||
Eb|-------------------3--2-|------------------------||

Verse 2 
Gb|----------------------------------------|X3
Db|----------------------------------------|
Ab|-0-0-0------------------------------0-0-|
Eb|----------2-2-3----2-2-3--2-2-3--2------|
  |
Gb|-----------------------------------------------------||
Db|-----------------------------------------------------||
Ab|-0-0-0-----------------------------------------------||
Eb|----------2-2-3----2-2-3--2-2-3--2--0--0-0-0-0-0-0-0-||
                                         |cresc.
Chorus                   X3|
Gb|------------------------|------------------------||
Db|------------------------|------------------------||
Ab|-0--0--0--0--5--5-------|-0--0--0--0--5-r--------||
Eb|-------------------3--2-|------------------------||

Ending to chorus 
Gb|-------------------------------------------------||
Db|-------------------------------------------------||
Ab|-0-0-0--0-0-0--5-r--0-0-0--0-0-0--5--0-0-0--5--0-||
Eb|-------------------------------------------------||

Solo x4
Gb|------------------------||
Db|------------------------||
Ab|-0--0--0--0--5--5-------||
Eb|-------------------3--2-||

Chorus                   X3|
Gb|------------------------|------------------------||
Db|------------------------|------------------------||
Ab|-0--0--0--0--5--5-------|-0--0--0--0--5----------||
Eb|-------------------3--2-|-------------------3--2-||

Chorus                   X3|
Gb|------------------------|-------------------------------------||
Db|------------------------|-------------------------------------||
Ab|-0--0--0--0--5--5-------|-0--0--0--0--5--5--r-----------------||
Eb|-------------------3--2-|-------------------------------------||

Outro
Gb|-------------------||
Db|-------------------||
Ab|-------------------||
Eb|-5-r-----------5\--||


Enviada por Sem inscrição
Nº de acordes: 0

Facebook