Black Sabbath

Paranoid

Black Sabbath

4.554 exibições
Intro: 
e|----------------------------------|
B|----------------------------------|
G|----------------------------------| 4x
D|----------------12-14-------12-14-|
A|-14-14-14-12-14-------12-14-------|
E|-12-12-12-------------------------|
 
Verso 1: 
e|----------------------------------------------------------|
B|----------------------------------------------------------|
G|----------------------------------------------------------| 2x
D|-------------------------------------------------12-------|
A|-14-14-14-14-14-14-14-14-12-12-12-12-12-12-12-12-10-12-14-|
E|-12-12-12-12-12-12-12-12-10-10-10-10-10-10-10-10----10-12-|
Em                             D                G   D   Em
Finished with my woman `cause she couldn't help me with my mind
                                D              G   D   Em
People think I'm insane because I am frowning all the time
 
Riff: 
e|-----------------------------------|
B|-----------------------------------|
G|-----------------------------------| 2x
D|-----------------------------------|
A|-14-10-12--14-14-14-14-14-14-14-14-|
E|-12-8--10--12-12-12-12-12-12-12-12-|
 
Verso 2: 
e|----------------------------------------------------------|
B|----------------------------------------------------------|
G|----------------------------------------------------------| 2x
D|-------------------------------------------------12-------|
A|-14-14-14-14-14-14-14-14-12-12-12-12-12-12-12-12-10-12-14-|
E|-12-12-12-12-12-12-12-12-10-10-10-10-10-10-10-10----10-12-|
 Em                                  D                G D  Em
All day long I think of things but nothing seems to satisfy
                                    D                 G D Em
Think I'll lose my mind if I don't find something to pacify

Refrão: 
e|----------------|
B|----------------|
G|----------------|
D|----------------|
A|-14--12--14--12-|
E|-12--10--12--10-|
Em                    D                   Em         D
    Can you help me,     need you for my brain. Oh  yeah

Interludio:
e|----------------------------------------------------------|
B|----------------------------------------------------------|
G|----------------------------------------------------------| 2x
D|-------------------------------------------------12-------|
A|-14-14-14-14-14-14-14-14-12-12-12-12-12-12-12-12-10-12-14-|
E|-12-12-12-12-12-12-12-12-10-10-10-10-10-10-10-10----10-12-|
 
Verso 3: 
e|----------------------------------------------------------|
B|----------------------------------------------------------|
G|----------------------------------------------------------| 2x
D|-------------------------------------------------12-------|
A|-14-14-14-14-14-14-14-14-12-12-12-12-12-12-12-12-10-12-14-|
E|-12-12-12-12-12-12-12-12-10-10-10-10-10-10-10-10----10-12-|
Em                               D                 G  D     Em
I need someone to show me the things in life that I can't find
Em                                      D            G    D  Em
I can't see the things that make true happiness, I must be blind
 
Solo:
e|----------------------------------------------------------------------------------------------|
B|------------------------------------------------------------8-10-10^-10-8-10-10^-8-10-8-------|
G|-9^-9-7-9-9-7-9-7-----------------------------7-9-9-9-7-8/9-----------------------------9-9-7-|
D|------------------9-7-5-7-5-7-----5---5-7-7-9-------------------------------------------------|
A|-----------------------------5-7-7-7-7--------------------------------------------------------|
E|----------------------------------------------------------------------------------------------|
           
e|------------------------------15^-15^-15^-15/12-15/12--15/12-------------12-------------------|
B|---------12-15-15^-15^-15^-12------------------------15------15-15/12-------15/12-------------|
G|-9-9-9-14-------------------------------------------------------------14^---------14-14/12----|
D|-------------------------------------------------------------------------------------------14-|
A|----------------------------------------------------------------------------------------------|
E|----------------------------------------------------------------------------------------------|
         
e|----------------------------------------------------------------------------------------------|
B|----------------------------------------------------------------------------------------------|
G|-12-14^-14/12-14^-12/14/12---12------------------------------------------12-------------------|
D|---------------------------14--14-14/12----12--------------------12-12-14---14-12----14-12-14-|
A|----------------------------------------14----12-10-12/10---12-14-----------------14----------|
E|----------------------------------------------------------12----------------------------------|

Interludio:
e|----------------------------------------------------------|
B|----------------------------------------------------------|
G|----------------------------------------------------------| 2x
D|-------------------------------------------------12-------|
A|-14-14-14-14-14-14-14-14-12-12-12-12-12-12-12-12-10-12-14-|
E|-12-12-12-12-12-12-12-12-10-10-10-10-10-10-10-10----10-12-|
 
Verso 4: 
e|----------------------------------------------------------|
B|----------------------------------------------------------|
G|----------------------------------------------------------| 2x
D|-------------------------------------------------12-------|
A|-14-14-14-14-14-14-14-14-12-12-12-12-12-12-12-12-10-12-14-|
E|-12-12-12-12-12-12-12-12-10-10-10-10-10-10-10-10----10-12-|
 Em                               D                 G  D     Em
Make a joke and I will sigh and you will laugh and I will cry
Em                           D             G  D  Em
Happiness I cannot feel and love to me is so unreal
 
Riff: 
e|-----------------------------------|
B|-----------------------------------|
G|-----------------------------------| 2x
D|-----------------------------------|
A|-14-10-12--14-14-14-14-14-14-14-14-|
E|-12-8--10--12-12-12-12-12-12-12-12-|

Verso 5:
e|----------------------------------------------------------|
B|----------------------------------------------------------|
G|----------------------------------------------------------| 2x
D|-------------------------------------------------12-------|
A|-14-14-14-14-14-14-14-14-12-12-12-12-12-12-12-12-10-12-14-|
E|-12-12-12-12-12-12-12-12-10-10-10-10-10-10-10-10----10-12-|
  Em                                 D              G  D    Em
And so as you hear these words now telling you now of my state
Em                             D                 G    D   Em
I tell you to enjoy life,  I wish I could, but it's too late

Final:
e|----------------------------------------------------------|
B|----------------------------------------------------------|
G|----------------------------------------------------------| 2x
D|-------------------------------------------------12-------|
A|-14-14-14-14-14-14-14-14-12-12-12-12-12-12-12-12-10-12-14-|
E|-12-12-12-12-12-12-12-12-10-10-10-10-10-10-10-10----10-12-|


Enviada por Sem inscrição
Nº de acordes: 3

Facebook